rock
 
|tablatures   |lyrics   |discussion forums   |more tabs @ XGuitar.com

Yngwie Malmsteen tabs

Vengeance guitar tab

					Transcribed by Mikko Kosonen
					mkosonen@hotmail.com


		Yngwie Malmsteen Vengeance


Interlude:


--12-----------13-----------15-----------17-----------18-----------
-----15-14-15-----15-14-15-----15-14-15-----15-14-15-----15-14-15--
-------------------------------------------------------------------
-------------------------------------------------------------------
-------------------------------------------------------------------
-------------------------------------------------------------------


--12-----------13-----------15-----------17-----------10-----------
-----13-12-13-----13-12-13-----13-12-13-----13-12-13-----11-10-11--
-------------------------------------------------------------------
-------------------------------------------------------------------
-------------------------------------------------------------------
-------------------------------------------------------------------


--12-----------13-----------15------------9----------10---------12-
-----11-10-11-----11-10-11-----11-10-11-----10-9-10-----10-9-10----
-------------------------------------------------------------------
-------------------------------------------------------------------
-------------------------------------------------------------------
-------------------------------------------------------------------
  development and support by
dmitry ivanov