rock
 
|tablatures   |lyrics   |discussion forums   |more tabs @ XGuitar.com

Yngwie Malmsteen tabs

Vengeance bass tab

Vengeance


Bass

F#||------------------|------------------|------------------|------------------|
C#||------------------|------------------|------------------|------------------|
G#||------------------|------------------|------------------|------------------|
D#||------------------|------------------|------------------|------------------|



------------------|------------------|-------------------|------------------|
------------------|------------------|-------------------|------------------|
------------------|------------------|--5----------------|------------------|
------------------|------------------|-------------------|------------------|



------------------|--------------------------|-------------------|
------------------|--------------------------|-------------------|
------------------|--4-----------4--7--5--3--|--5----------------|
------------------|-----0--3--6--------------|-------------------|



------------------|------------------|--------------------------|
------------------|------------------|--2--0--------------------|
------------------|------------------|--------4--2--0-----------|
------------------|------------------|-----------------3--1--0--|



-------------------|------------------|------------------|
-------------------|------------------|------------------|
--5----------------|------------------|------------------|
-------------------|------------------|------------------|



--------------------------|-------------------|------------------|
--------------------------|-------------------|------------------|
--4-----------4--7--5--3--|--5----------------|------------------|
-----0--3--6--------------|-------------------|------------------|



------------------|--------------------------|--------------------------|
------------------|--2--0--------------------|--------------------------|
------------------|--------4--2--0-----------|--5--5--5--5--5--5--5--5--|
------------------|-----------------3--1--0--|--------------------------|



--------------------------|--------------------------|--------------------------|
--------------------------|--------------------------|--------------------------|
--5--5--5--5--5--5--5--5--|--5--5--5--5--5--5--5--5--|--4-----------4--7--5--4--|
--------------------------|--------------------------|-----0--3--6--------------|



--------------------------|--------------------------|--------------------------|
--------------------------|--------------------------|--------------------------|
--5--5--5--5--5--5--5--5--|--5--5--5--5--5--5--5--5--|--5--5--5--5--5--5--5--5--|
--------------------------|--------------------------|--------------------------|



--------------------------|--------------------------|--------------------------|
--2--0--------------------|--------------------------|--------------------------|
--------4--2--0-----------|--5--5--5--5--5--5--5--5--|--5--5--5--5--5--5--5--5--|
-----------------3--1--0--|--------------------------|--------------------------|



--------------------------|--------------------------|--------------------------|
--------------------------|--------------------------|--------------------------|
--5--5--5--5--5--5--5--5--|--4-----------4--7--5--4--|--5--5--5--5--5--5--5--5--|
--------------------------|-----0--3--6--------------|--------------------------|



--------------------------|--------------------------|--------------------------|
--------------------------|--------------------------|--------------------------|
--5--5--5--5--5--5--5--5--|--5--5--5--5--5--5--5--5--|--4-----------4--7--5--4--|
--------------------------|--------------------------|-----0--3--6--------------|



-------------------|--------------------------|-------------------|
-------------------|--------------2--5--3--2--|--3----------------|
--5----------------|--------1--4--------------|-------------------|
-------------------|--0--3--------------------|-------------------|



--------------0--3--2--0--|--2----2--3--0--3-----3--|-----3-----3--------------|
-----------2--------------|-------------------3-----|--2-----0--------0--2-----|
-----1--4-----------------|-------------------------|--------------4--------4--|
--3-----------------------|-------------------------|--------------------------|



-------------------|------------------|--------------------------|
-------------------|------------------|--0--0--0--0--0--0--0--0--|
--5----------------|------------------|--------------------------|
-------------------|------------------|--------------------------|



--------------------------|--------------------------|---------------------|
--0--0--0--0--0--0--0--0--|--0--0--0--0--0--0--0--0--|---------------------|
--------------------------|--------------------------|--4------5------7----|
--------------------------|--------------------------|---------------------|



--------------------------|--------------------------|--------------------------|
--0--0--0--0--0--0--0--0--|--------------------------|--------------------------|
--------------------------|--1--1--1--1--1--1--1--1--|--0--0--0--0--0--0--0--0--|
--------------------------|--------------------------|--------------------------|



--------------------------|--------------------------|--------------------------|
--------------------------|--0--0--0--0--0--0--0--0--|--0--0--0--0--0--0--0--0--|
--4--4--4--4--4--4--4--4--|--------------------------|--------------------------|
--------------------------|--------------------------|--------------------------|



--------------------------|---------------------|--------------------------|
--0--0--0--0--0--0--0--0--|---------------------|--0--0--0--0--0--0--0--0--|
--------------------------|--4------5------7----|--------------------------|
--------------------------|---------------------|--------------------------|



--------------------------|--------------------------|--------------------------|
--------------------------|--------------------------|--------------------------|
--1--1--1--1--1--1--1--1--|--0--0--0--0--0--0--0--0--|--4--4--4--4--4--4--4--4--|
--------------------------|--------------------------|--------------------------|



--------------------------|--------------------------|--------------------------|
--------------------------|--------------------------|--------------------------|
--1--1--1--1--1--1--1--1--|--1--1--1--1--1--1--1--1--|--2--2--2--2--2--2--2--2--|
--------------------------|--------------------------|--------------------------|



--------------------------|--------------------------|--------------------------|
--------------------------|--------------------------|--------------------------|
--2--2--2--2--2--2--2--2--|--3--3--3--3--3--3--3--3--|--3--3--3--3--3--3--3--3--|
--------------------------|--------------------------|--------------------------|



--7--6--------------------|-------------------|--------------------------|
--------8--7--5-----------|-------------------|--0--0--0--0--0--0--0--0--|
-----------------8--7--5--|--4----------------|--------------------------|
--------------------------|-------------------|--------------------------|



--------------------------|--------------------------|--------------6--9--7--6--|
--0--0--0--0--0--0--0--0--|--0--0--0--0--0--0--0--0--|--------5--8--------------|
--------------------------|--------------------------|--4--7--------------------|
--------------------------|--------------------------|--------------------------|



--------------------------|--------------------------|--------------------------|
--------------------------|--------------------------|--------------------------|
--5--5--5--5--5--5--5--5--|--5--5--5--5--5--5--5--5--|--5--5--5--5--5--5--5--5--|
--------------------------|--------------------------|--------------------------|



--9--7--6------------------|--------------------------|
-----------9--7------------|--0--0--0--0--0--0--0--0--|
-----------------10--8--7--|--------------------------|
---------------------------|--------------------------|



--------------------------|--------------------------|--------------6--9--7--6--|
--0--0--0--0--0--0--0--0--|--0--0--0--0--0--0--0--0--|--------5--8--------------|
--------------------------|--------------------------|--4--7--------------------|
--------------------------|--------------------------|--------------------------|



--------------------------|--------------------------|--------------------------|
--------------------------|--------------------------|--------------------------|
--5--5--5--5--5--5--5--5--|--5--5--5--5--5--5--5--5--|--5--5--5--5--5--5--5--5--|
--------------------------|--------------------------|--------------------------|



--9--7--6------------------|-------------------|------------------|
-----------9--7------------|-------------------|------------------|
-----------------10--8--7--|--5----------------|------------------|
---------------------------|-------------------|------------------|



--------------------------|--------------------------|--------------------------|
--0--0--0--0--0--0--0--0--|--0--0--0--0--0--0--0--0--|--0--0--0--0--0--0--0--0--|
--------------------------|--------------------------|--------------------------|
--------------------------|--------------------------|--------------------------|



---------------------|--------------------------|--------------------------|
---------------------|--0--0--0--0--0--0--0--0--|--------------------------|
--4------5------7----|--------------------------|--1--1--1--1--1--1--1--1--|
---------------------|--------------------------|--------------------------|



--------------------------|--------------------------|--------------------------|
--------------------------|--------------------------|--0--0--0--0--0--0--0--0--|
--0--0--0--0--0--0--0--0--|--4--4--4--4--4--4--4--4--|--------------------------|
--------------------------|--------------------------|--------------------------|



--------------------------|--------------------------|---------------------|
--0--0--0--0--0--0--0--0--|--0--0--0--0--0--0--0--0--|---------------------|
--------------------------|--------------------------|--4------5------7----|
--------------------------|--------------------------|---------------------|



--------------------------|--------------------------|--------------------------|
--0--0--0--0--0--0--0--0--|--------------------------|--------------------------|
--------------------------|--1--1--1--1--1--1--1--1--|--0--0--0--0--0--0--0--0--|
--------------------------|--------------------------|--------------------------|



--------------------------|--------------------------|--------------------------|
--------------------------|--------------------------|--------------------------|
--4--4--4--4--4--4--4--4--|--1--1--1--1--1--1--1--1--|--1--1--1--1--1--1--1--1--|
--------------------------|--------------------------|--------------------------|



--------------------------|--------------------------|--------------------------|
--------------------------|--------------------------|--------------------------|
--2--2--2--2--2--2--2--2--|--2--2--2--2--2--2--2--2--|--3--3--3--3--3--3--3--3--|
--------------------------|--------------------------|--------------------------|



--------------------------|--7--6--------------------|-------------------|
--------------------------|--------8--7--5-----------|-------------------|
--3--3--3--3--3--3--3--3--|-----------------8--7--5--|--4----------------|
--------------------------|--------------------------|-------------------|



--------------------------|--------------------------|--------------------------|
--0--0--0--0--0--0--0--0--|--0--0--0--0--0--0--0--0--|--0--0--0--0--0--0--0--0--|
--------------------------|--------------------------|--------------------------|
--------------------------|--------------------------|--------------------------|



--------------6--9--7--6--|--------------------------|--------------------------|
--------5--8--------------|--------------------------|--------------------------|
--4--7--------------------|--5--5--5--5--5--5--5--5--|--5--5--5--5--5--5--5--5--|
--------------------------|--------------------------|--------------------------|



--------------------------|--9--7--6------------------|
--------------------------|-----------9--7------------|
--5--5--5--5--5--5--5--5--|-----------------10--8--7--|
--------------------------|---------------------------|



--------------------------|--------------------------|--------------------------|
--0--0--0--0--0--0--0--0--|--0--0--0--0--0--0--0--0--|--0--0--0--0--0--0--0--0--|
--------------------------|--------------------------|--------------------------|
--------------------------|--------------------------|--------------------------|



--------------6--9--7--6--|--------------------------|--------------------------|
--------5--8--------------|--------------------------|--------------------------|
--4--7--------------------|--5--5--5--5--5--5--5--5--|--5--5--5--5--5--5--5--5--|
--------------------------|--------------------------|--------------------------|



--------------------------|--------------------------|-------------------|
--------------------------|--------------------------|-------------------|
--5--5--5--5--5--5--5--5--|--5-----------4--7--5--4--|--5----------------|
--------------------------|-----0--3--6--------------|-------------------|



--------------------------|-------------------|--------------0--3--2--0--|
-----------------5--3--2--|--3----------------|-----------2--------------|
-----------4--7-----------|-------------------|-----1--4-----------------|
--0--3--6-----------------|-------------------|--3-----------------------|



--2----2--3--0--3-----3--|-----3-----3--------------|--7-----------------|
-------------------3-----|--2-----0--------0--2-----|-----------7--------|
-------------------------|--------------4--------4--|--------------------|
-------------------------|--------------------------|--------------------|



--------------------|-----------7----7------|-----------5----5------|
--------------------|-----5--7--------------|-----5--7--------------|
--8--------7--------|--5--------------------|--5--------------------|
--------------------|-----------------------|-----------------------|



-----------7----7------|-----------7--9--7--5-----|-----------7----7------|
-----5--7--------------|-----5--7--------------7--|-----5--7--------------|
--5--------------------|--5-----------------------|--5--------------------|
-----------------------|--------------------------|-----------------------|



-----------5----5------|-----------7----7------|-----------7--9--7--5-----|
-----5--7--------------|-----5--7--------------|-----5--7--------------7--|
--5--------------------|--5--------------------|--5-----------------------|
-----------------------|-----------------------|--------------------------|



-----------7----7------|-----------5----5------|-----------7----7------|
-----5--7--------------|-----5--7--------------|-----5--7--------------|
--5--------------------|--5--------------------|--5--------------------|
-----------------------|-----------------------|-----------------------|



-----------7--9--7--5-----|-----------7----7------|-----------5----5------|
-----5--7--------------7--|-----5--7--------------|-----5--7--------------|
--5-----------------------|--5--------------------|--5--------------------|
--------------------------|-----------------------|-----------------------|



-----------7----7------|-----------7--9--7--5-----|-------------------|
-----5--7--------------|-----5--7--------------7--|-------------------|
--5--------------------|--5-----------------------|--5----------------|
-----------------------|--------------------------|-------------------|



-------------------|--------------------|-------------------|
----------4--------|--5-----------------|----------2--------|
-------------------|-----------3--------|-------------------|
-------------------|--------------------|-------------------|



--------------------|-------------------|--------------------|
--3-----------------|-------------------|--2-----------------|
-----------1--------|----------5--------|-----------0--------|
--------------------|-------------------|--------------------|



--------------------|-------------------|-------------------|
--------------------|-------------------|----------4--------|
--2--------4--------|--5----------------|-------------------|
--------------------|-------------------|-------------------|



--------------------|-------------------|--------------------|
--5-----------------|----------2--------|--3-----------------|
-----------3--------|-------------------|-----------1--------|
--------------------|-------------------|--------------------|



-------------------|--------------------|--------------------|
-------------------|--2-----------------|--------------------|
----------5--------|-----------0--------|--2--------4--------|
-------------------|--------------------|--------------------|



-----------9----9------|-----------7----7------|-----------9----9------|
--------9--------------|--------9--------------|--------9--------------|
-----7-----------------|-----7-----------------|-----7-----------------|
--0--------------------|--0--------------------|--0--------------------|



-----------7--11--9--7-----|-----------9----9------|-----------7----7------|
--------9---------------9--|--------9--------------|--------9--------------|
-----7---------------------|-----7-----------------|-----7-----------------|
--0------------------------|--0--------------------|--0--------------------|



-----------9----9------|-----------7--11--9--7-----|-----------9----9------|
--------9--------------|--------9---------------9--|--------9--------------|
-----7-----------------|-----7---------------------|-----7-----------------|
--0--------------------|--0------------------------|--0--------------------|



-----------7----7------|-----------9----9------|-----------7--11--9--7-----|
--------9--------------|--------9--------------|--------9---------------9--|
-----7-----------------|-----7-----------------|-----7---------------------|
--0--------------------|--0--------------------|--0------------------------|



-----------9----9------|-----------7----7------|-----------9----9------|
--------9--------------|--------9--------------|--------9--------------|
-----7-----------------|-----7-----------------|-----7-----------------|
--0--------------------|--0--------------------|--0--------------------|



-----------7--11--9--7-----|--------------------------|
--------9---------------9--|--------------------------|
-----7---------------------|--2--2--2--2--2--2--2--2--|
--0------------------------|--------------------------|



--------------------------|--------------------------|--------------------------|
--------------------------|--------------------------|--5--5--4--4--2-----------|
--2--2--2--2--2--2--2--2--|--2--2--2--2--2--2--2--2--|-----------------6--3--2--|
--------------------------|--------------------------|--------------------------|



--------------------------|--------------------------|--------------------------|
--------------------------|--------------------------|--------------------------|
--2--2--2--2--2--2--2--2--|--2--2--2--2--2--2--2--2--|--2--2--2--2--2--2--2--2--|
--------------------------|--------------------------|--------------------------|



--------------------------|--------------------------|--------------------------|
--------------4--4--4--4--|--------------------------|--------------------------|
--2--2--2--2--------------|--2--2--2--2--2--2--2--2--|--2--2--2--2--2--2--2--2--|
--------------------------|--------------------------|--------------------------|



--------------------------|--------------------------|--------------------------|
--------------------------|--4--4--2--2--4--2--1-----|--------------------------|
--2--2--2--2--2--2--2--2--|-----------------------3--|--2--2--2--2--2--2--2--2--|
--------------------------|--------------------------|--------------------------|



--------------------------|-----------4-----4--4--4--|--4--4--4--4--4--4--4--4--|
--------------------------|--4--4--7-----7-----------|--------------------------|
--2--2--2--2--2--2--2--2--|--------------------------|--------------------------|
--------------------------|--------------------------|--------------------------|



-------------------|------------------|------------------|
-------------------|------------------|------------------|
--5----------------|------------------|------------------|
-------------------|------------------|------------------|



--------------6--9--7--6--|-------------------|------------------|
--------5--8--------------|-------------------|------------------|
--4--7--------------------|--5----------------|------------------|
--------------------------|-------------------|------------------|



------------------|--9--7--6------------------|--------------------------|
------------------|-----------9--7------------|--0--0--0--0--0--0--0--0--|
------------------|-----------------10--8--7--|--------------------------|
------------------|---------------------------|--------------------------|



--------------------------|--------------------------|--------------6--9--7--6--|
--0--0--0--0--0--0--0--0--|--0--0--0--0--0--0--0--0--|--------5--8--------------|
--------------------------|--------------------------|--4--7--------------------|
--------------------------|--------------------------|--------------------------|



--------------------------|--------------------------|--------------------------|
--------------------------|--------------------------|--------------------------|
--5--5--5--5--5--5--5--5--|--5--5--5--5--5--5--5--5--|--5--5--5--5--5--5--5--5--|
--------------------------|--------------------------|--------------------------|



--9--7--6------------------|-------------------|------------------|
-----------9--7------------|-------------------|------------------|
-----------------10--8--7--|--5----------------|------------------|
---------------------------|-------------------|------------------|



--------------------------|--------------------------|--------------------------|
--0--0--0--0--0--0--0--0--|--0--0--0--0--0--0--0--0--|--0--0--0--0--0--0--0--0--|
--------------------------|--------------------------|--------------------------|
--------------------------|--------------------------|--------------------------|



---------------------|--------------------------|--------------------------|
---------------------|--0--0--0--0--0--0--0--0--|--------------------------|
--4------5------7----|--------------------------|--1--1--1--1--1--1--1--1--|
---------------------|--------------------------|--------------------------|



--------------------------|--------------------------|--------------------------|
--------------------------|--------------------------|--0--0--0--0--0--0--0--0--|
--0--0--0--0--0--0--0--0--|--4--4--4--4--4--4--4--4--|--------------------------|
--------------------------|--------------------------|--------------------------|



--------------------------|--------------------------|---------------------|
--0--0--0--0--0--0--0--0--|--0--0--0--0--0--0--0--0--|---------------------|
--------------------------|--------------------------|--4------5------7----|
--------------------------|--------------------------|---------------------|



--------------------------|--------------------------|--------------------------|
--0--0--0--0--0--0--0--0--|--------------------------|--------------------------|
--------------------------|--1--1--1--1--1--1--1--1--|--0--0--0--0--0--0--0--0--|
--------------------------|--------------------------|--------------------------|



--------------------------|--------------------------|--------------------------|
--------------------------|--------------------------|--------------------------|
--4--4--4--4--4--4--4--4--|--1--1--1--1--1--1--1--1--|--1--1--1--1--1--1--1--1--|
--------------------------|--------------------------|--------------------------|



--------------------------|--------------------------|--------------------------|
--------------------------|--------------------------|--------------------------|
--2--2--2--2--2--2--2--2--|--2--2--2--2--2--2--2--2--|--3--3--3--3--3--3--3--3--|
--------------------------|--------------------------|--------------------------|



--------------------------|--7--6--------------------|-------------------|
--------------------------|--------8--7--5-----------|-------------------|
--3--3--3--3--3--3--3--3--|-----------------8--7--5--|--4----------------|
--------------------------|--------------------------|-------------------|



--------------------------|--------------------------|--------------------------|
--0--0--0--0--0--0--0--0--|--0--0--0--0--0--0--0--0--|--0--0--0--0--0--0--0--0--|
--------------------------|--------------------------|--------------------------|
--------------------------|--------------------------|--------------------------|



--------------6--9--7--6--|--------------------------|--------------------------|
--------5--8--------------|--------------------------|--------------------------|
--4--7--------------------|--5--5--5--5--5--5--5--5--|--5--5--5--5--5--5--5--5--|
--------------------------|--------------------------|--------------------------|



--------------------------|--9--7--6------------------|
--------------------------|-----------9--7------------|
--5--5--5--5--5--5--5--5--|-----------------10--8--7--|
--------------------------|---------------------------|



--------------------------|--------------------------|--------------------------|
--0--0--0--0--0--0--0--0--|--0--0--0--0--0--0--0--0--|--0--0--0--0--0--0--0--0--|
--------------------------|--------------------------|--------------------------|
--------------------------|--------------------------|--------------------------|



--------------6--9--7--6--|--------------------------|--------------------------|
--------5--8--------------|--------------------------|--------------------------|
--4--7--------------------|--5--5--5--5--5--5--5--5--|--5--5--5--5--5--5--5--5--|
--------------------------|--------------------------|--------------------------|



--------------------------|--------------------------|-------------------|
--------------------------|--------------------------|-------------------|
--5--5--5--5--5--5--5--5--|--5-----------4--7--5--4--|--5----------------|
--------------------------|-----0--3--6--------------|-------------------|



--------------------------|-------------------|--------------0--3--2--0--|
--------------2--5--3--2--|--3----------------|-----------2--------------|
--------1--4--------------|-------------------|-----1--4-----------------|
--0--3--------------------|-------------------|--3-----------------------|



--2----2--3--0--3-----3--|-----3-----3--------------|--7-----------------|
-------------------3-----|--2-----0--------0--2-----|-----------7--------|
-------------------------|--------------4--------4--|--------------------|
-------------------------|--------------------------|--------------------|



--------------------|--------------------------|--------------------------|
--------------------|--0--0--0--0--0--0--0--0--|--0--0--0--0--4--4--4--4--|
--8--------7--------|--------------------------|--------------------------|
--------------------|--------------------------|--------------------------|



--------------------------|--------------------------|--------------------------|
--5--5--5--5--------------|--------------2--2--2--2--|--3--3--3--3--------------|
--------------3--3--3--3--|--3--3--3--3--------------|--------------1--1--1--1--|
--------------------------|--------------------------|--------------------------|



--------------------------|--------------------------|--------------------------|
--------------0--0--0--0--|--2--2--2--2--------------|--------------------------|
--1--1--1--1--------------|--------------0--0--0--0--|--2--2--2--2--4--4--4--4--|
--------------------------|--------------------------|--------------------------|



--------------------------|--------------------------|--------------------------|
--0--0--0--0--0--0--0--0--|--0--0--0--0--4--4--4--4--|--5--5--5--5--------------|
--------------------------|--------------------------|--------------3--3--3--3--|
--------------------------|--------------------------|--------------------------|



--------------------------|--------------------------|--------------------------|
--------------2--2--2--2--|--3--3--3--3--------------|--------------0--0--0--0--|
--3--3--3--3--------------|--------------1--1--1--1--|--1--1--1--1--------------|
--------------------------|--------------------------|--------------------------|



--------------------------|--------------------------|--------------------|
--2--2--2--2--------------|--------------------------|--0-----------------|
--------------0--0--0--0--|--2--2--2--2--4--4--4--4--|-----------0--------|
--------------------------|--------------------------|--------------------|



--------------------|--------------------|--------------------|
--0-----------------|--0-----------------|--0-----------------|
-----------0--------|-----------0--------|-----------0--------|
--------------------|--------------------|--------------------|



-------------------|-------------------|-------------------|-------------------|
-------------------|-------------------|-------------------|--0----------------|
--5----------------|-------------------|-------------------|-------------------|
-------------------|--4----------------|--5----------------|-------------------|



------------------|------------------|------------------|------------------|
------------------|------------------|------------------|------------------|
------------------|------------------|------------------|------------------|
------------------|------------------|------------------|------------------|



------------------|------------------|------------------|------------------|
------------------|------------------|------------------|------------------|
------------------|------------------|------------------|------------------|
------------------|------------------|------------------|------------------|



------------------|------------------|------------------|------------------|
------------------|------------------|------------------|------------------|
------------------|------------------|------------------|------------------|
------------------|------------------|------------------|------------------|



------------------||
------------------||
------------------||
------------------||
  development and support by
dmitry ivanov