rock
 
|tablatures   |lyrics   |discussion forums   |more tabs @ XGuitar.com

Yngwie Malmsteen tabs

Sarabande guitar tab

         Title : "Sarabande"
        Artist : Yngwie Malmsteen
         Album : Concerto Suite
Transcribed by : Raśl Simarro Mellado   e-mail:    artaburu@clientes.euskaltel.es


Note: There are a lot of bugs 'cause the speed of Yngwie“s guitar. I'll try to correct them, 
and I'm waitting your corrections too. 
Thanks To Yngwie for this Album.





   |<_________________________ 2X _____________________________________>|
                                                                               
Eb||-------------9----------9--10-----9--------------------------------------------------
Bb||--10------10---12----12--------12---------10-9h10p9----------------------------------
Gb||-----9---9------------------------------------------11p9s7s6-------------------------
Db||-------11----------------------------------------------------9p7s6s7-----------------
Ab||-------------------------------------------------------------------------------------
Eb||-------------------------------------------------------------------------------------


  --9---9-9---9--14--9--10-----9-----------------------------9---9--13--9---14--9--10------
  --9---9-9---9-------------12----10--12--9--10------9-------9---9------9--------------12--
  -----------------------------------------------11----10----------------------------------
  -----------------------------------------------------------------------------------------
  -----------------------------------------------------------------------------------------
  -----------------------------------------------------------------------------------------



  --9------------------------------
  ----10--12--9--10--9p10h9--------
  ---------------------------11----
  ---------------------------------
  ---------------------------------
  ---------------------------------


  |<_________________________ 2X _____________________________________>|
                                                                             
  -------------9----------9--10-----9--------------------------------------------------
  --10------10---12----12--------12---------10-9h10p9----------------------------------
  -----9---9------------------------------------------11p9s7s6-------------------------
  -------11----------------------------------------------------9p7s6s7-----------------
  -------------------------------------------------------------------------------------
  -------------------------------------------------------------------------------------


  --9---9-9---9--14--9--10-----9-----------------------------9---9--13--9---14--9--10------
  --9---9-9---9-------------12----10--12--9--10------9-------9---9------9--------------12--
  -----------------------------------------------11----10---------------------------------- 
  -----------------------------------------------------------------------------------------
  -----------------------------------------------------------------------------------------
  -----------------------------------------------------------------------------------------

  

  ---9-------------------------------------------------------------------------------------
  -----10--12--9--10------9----------------------------------------------------------------
  -------------------11-----10--11---6--7----6---------------------------------------------
  -----------------------------------------9----7--9--6--7----6----------------------------
  ----------------------------------------------------------9----8--9----------------------
  -----------------------------------------------------------------------------------------


-----------------------------------------------------9--10-9-10-----------------------------
---------------------------------------------9-10h12--------------12--10--9-9bf-------------
-------------------------------11~--------11-------------------------------------11p9s7p6h7-
-------------------------11h12--------------------------------------------------------------
----------------11h12h14--------------------------------------------------------------------
----14~------14-----------------------------------------------------------------------------


----------------------------------------------------7-9-10----7-9-10-9-10-12-9-10-9-10-9-10-
---------------------------------------------7-9-10-----------------------------------------
----6h7p6---6h7p6---6h7h9p7p6----6---7-6-7-9------------------------------------------------
----------9-------9------------9------------------------------------------------------------
--------------------------------------------------------------------------------------------
--------------------------------------------------------------------------------------------


-9-10-9-10-12-14-12-14-16-14-16-17-16-17-19-17-19-21-19-17h19p17---17------21-19-17-16-14-12-
-----------------------------------------------------------------21---21---------------------
---------------------------------------------------------------------------------------------
---------------------------------------------------------------------------------------------
---------------------------------------------------------------------------------------------
---------------------------------------------------------------------------------------------

-10-9------------------------------------------------------------7-9-10-9-10-7-9----7------7-
-----3-2h3p2-----------------------------------5-8-5-7~---7-9-10-----------------10---9-10---
-------------4-2-------------------------4-6-7-----------------------------------------------
-----------------5-4-2--5-2tr4-----4-6-7-----------------------------------------------------
---------------------------------------------------------------------------------------------
---------------------------------------------------------------------------------------------

---------------------7---9---17---9----------------------------------------
-10-9-7-7---9---10---9---10-------10----10--9--7--10--9--6--7--10--9--6--7-
--------7---10--11---------------------------------------------------------
---------------------------------------------------------------------------
---------------------------------------------------------------------------
---------------------------------------------------------------------------


esto desde 1:30

             |<________________________X4____________________________________________>|
---------------------------------------------------------------------------------------
-0-0-0-2-0-0-3-0-0-5-0-0-7-0-0-8-0-0-7-0-0-12-0-0-10-0-0-8-0-0-7-0-0-5-0-0-3-0-0-2-0-0-
---------------------------------------------------------------------------------------
---------------------------------------------------------------------------------------
---------------------------------------------------------------------------------------
---------------------------------------------------------------------------------------

-------------------------------------------------------------------------------
-12-14-15-12-14-15-12-14-15-10-12-14-10-12-14-10-12-14-9-10-12-9-10-12-9-10-12-
-------------------------------------------------------------------------------
-------------------------------------------------------------------------------
-------------------------------------------------------------------------------
-------------------------------------------------------------------------------

----------------------------------------------------------------------------------------------
-7-9-10-7-9-10-7-9-10-5-7-8-5-7-8-5-7-8-3-5-8-3-5-8-3-5-8-2-3-5-2-3-5-2-3-5-0-2-3-0-2-3-0-2-3-
----------------------------------------------------------------------------------------------
----------------------------------------------------------------------------------------------
----------------------------------------------------------------------------------------------
----------------------------------------------------------------------------------------------

-----------------2---5-----------------------------------------------------------------------
---------1---4--------------------6-9p6-------------6-9p6-------------6-9p6---6--------------
-----2------------------------6-7-------7-------6-7-------7-------6-7-------7---7--7---------
-4--------------------------9-------------9-6-9-------------9-6-9-----------------9--8s9-----
---------------------------------------------------------------------------------------------
---------------------------------------------------------------------------------------------

desde 2:02

             |<________________________X4____________________________________________>|
---------------------------------------------------------------------------------------
-0-0-0-2-0-0-3-0-0-5-0-0-7-0-0-8-0-0-7-0-0-12-0-0-10-0-0-8-0-0-7-0-0-5-0-0-3-0-0-2-0-0-
---------------------------------------------------------------------------------------
---------------------------------------------------------------------------------------
---------------------------------------------------------------------------------------
---------------------------------------------------------------------------------------

-------------------------------------------------------------------------------
-12-14-15-12-14-15-12-14-15-10-12-14-10-12-14-10-12-14-9-10-12-9-10-12-9-10-12-
-------------------------------------------------------------------------------
-------------------------------------------------------------------------------
-------------------------------------------------------------------------------
-------------------------------------------------------------------------------

----------------------------------------------------------------------------------------------
-7-9-10-7-9-10-7-9-10-5-7-8-5-7-8-5-7-8-3-5-8-3-5-8-3-5-8-2-3-5-2-3-5-2-3-5-0-2-3-0-2-3-0-2-3-
----------------------------------------------------------------------------------------------
----------------------------------------------------------------------------------------------
----------------------------------------------------------------------------------------------
----------------------------------------------------------------------------------------------


----------------2---5-------11-10-8-7-8-10-11-10-8-7-8-10-15-14-11-10-8-7------7---------------
--------1---4-------------------------------------------------------------10-8--10-8-7---------
-----2---------------------------------------------------------------------------------9-7-6~--
-4---------------------------------------------------------------------------------------------
-----------------------------------------------------------------------------------------------
-----------------------------------------------------------------------------------------------


-13-9-10----9----------------------------------------
---------12---10-12-9-10----9------------------------
-------------------------11---10-11------------------
------------------------------------12-11-9----------
--------------------------------------------12-11-9~-
-----------------------------------------------------


   |<_________________________ 2X _____________________________________>|
                                                                               
Eb||-------------9----------9--10-----9--------------------------------------------------
Bb||--10------10---12----12--------12---------10-9h10p9----------------------------------
Gb||-----9---9------------------------------------------11p9s7s6-------------------------
Db||-------11----------------------------------------------------9p7s6s7-----------------
Ab||-------------------------------------------------------------------------------------
Eb||-------------------------------------------------------------------------------------


  --9---9-9---9--14--9--10-----9-----------------------------9---9--13--9---14--9--10------
  --9---9-9---9-------------12----10--12--9--10------9-------9---9------9--------------12--
  -----------------------------------------------11----10----------------------------------
  -----------------------------------------------------------------------------------------
  -----------------------------------------------------------------------------------------
  -----------------------------------------------------------------------------------------



  --9------------------------------
  ----10--12--9--10--9p10h9--------
  ---------------------------11----
  ---------------------------------
  ---------------------------------
  ---------------------------------


  |<_________________________ 2X _____________________________________>|
                                                                             
  -------------9----------9--10-----9--------------------------------------------------
  --10------10---12----12--------12---------10-9h10p9----------------------------------
  -----9---9------------------------------------------11p9s7s6-------------------------
  -------11----------------------------------------------------9p7s6s7-----------------
  -------------------------------------------------------------------------------------
  -------------------------------------------------------------------------------------


  --9---9-9---9--14--9--10-----9-----------------------------9---9--13--9---14--9--10------
  --9---9-9---9-------------12----10--12--9--10------9-------9---9------9--------------12--
  -----------------------------------------------11----10---------------------------------- 
  -----------------------------------------------------------------------------------------
  -----------------------------------------------------------------------------------------
  -----------------------------------------------------------------------------------------

  

  ---9------------------------------------------------------------------------------------
  -----10--12--9--10------9--------9-10---9-----------------------------------------------
  -------------------11-----10--11------11--10--11--6--7----6-----------------------------
  --------------------------------------------------------9----7--9--6--7----6------------
  -------------------------------------------------------------------------9----8--9------
  ----------------------------------------------------------------------------------------
  development and support by
dmitry ivanov