rock
 
|tablatures   |lyrics   |discussion forums   |more tabs @ XGuitar.com

Yngwie Malmsteen tabs

Sacrifice guitar tab

Yngwie Malmsteen - Sacrifice
from Facing the Animal
tune down 1/2 step
(Judy Letostak)


You can post this on your web, ftp, bbs whatever, without permission.
leave all the extra text in please.

              Intro (guitar 1)
------------|----------------------------------------------------------|
------------|----------------------------------------------------------|
-7----------|----------------------------------------------------------|
------------|-----------0------------------0-----------0---------------|
------------|---------------------------------4--0-2-4---4-2-0---------|
----x\------|--0-2-2-2----2--0-2---0-2-2-2---------------------4-0-2---|

Guitar 2  [G] repeat towards end of song

-10h12--10h12-p10--9---10----9---9----------9-------------------------
-12h14--12h14-p12------12--------------12--------12--10--12--10---9---
-------------------14--------14--14----13---14---13--11--13--11-------
------------------------------------------------------------------14--
----------------------------------------------------------------------
----------------------------------------------------------------------


--------------9---10--9-------9~~~-----10h12----10----9----10---------
-10hold-------10--12--10-12-9-10~~-----12h14----12---------12---------
-11hold-----------------------------------------------14--------------
----------------------------------------------------------------------
----------------------------------------------------------------------
----------------------------------------------------------------------


--9---------16-12--14---12---------12---14----------------------------
-------12----------15---14--15-12--14---15----------------------------
--14------------------------------------------------------------------
----------------------------------------------------------------------
----------------------------------------------------------------------
----------------------------------------------------------------------


-12h14-------14-16-14-17-16---17--14~~~~~~~~---------21-19-19-16-17---
-14h15-------15-17-------17-------------------------------------------
----------------------------------------------------------------------
----------------------------------------------------------------------
----------------------------------------------------------------------
----------------------------------------------------------------------


-14--21-19-17-14---14-12-----17-16--14-----------14-------14----------
-------------------------15------------15-15-14-----12-17----19-15----
----------------------------------------------------------------------
----------------------------------------------------------------------
----------------------------------------------------------------------
----------------------------------------------------------------------


----------------------------------------------------------------------
-12-12-------14--15---------------------------------------------------
-------14-13-11--10---------------------------------------------------
----------------------------------------------------------------------
----------------------------------------------------------------------
----------------------------------------------------------------------

part A (Verse)

How many times must i tell you...
Tearing my heart out and serve it to you...
Walking a wasteland where beauty and truth...

----------------------------------------------------------------------
----------------------------------------------------------------------
----------------------------------------------------------------------
---------0--------------------0-----------0---------------------------
------------4--------------------4--0-2-4---4-2-0---------------------
-0-2-2-2-------0-2----0-2-2-2---------------------4-------------------


---------------------0------------------------------------------------
---------------------0------------------------------------------------
----------------------------------------------------------------------
------------------------------------0-----------4-2-0-----------------
---------------------------------------4--0-2-4-------4-2-0-----------
-0-2-2-2--2--2--0-2--------0-2-2-2--------------------------4-2-0-----


----------------------------------------------------------------------
----------------------------------------------------------------------
----------------------------------------------------------------------
------------------------------------------------0---------------------
------------4--------------------------4--0-2-4---4-2-0---------------
-0-2-2-2-2-----0--2---x-x---0-2-2-2-2-------------------4--0-2-2-2----


----------------------------------------------------------------------
----------------------------------------------------------------------
----------------------------------------------------------------------
---------------------0-----------4-2-0--------------------------------
------------------------4--0-2-4-------4-2-0--------------------------
-2--2--0-2--0-2-2-2---------------------------4-2-0-------------------


Part B
Say what you will...
Left on my own...
----------------------------------------------------------------------
--6----------------------------------------------------------6--------
--6--------------------4-7-6-4-------------------------------6--------
--6----------4-6-4-6-7---------7-4---------------------------6--------
--4----4-5-7-----------------------5-4-2----------4~~~~~-----4--------
------------------------------------------5-1-------------------------


--------------------------------------------------------------2-------
--------------------------------------------------------------------3-
-----------------4-7-6-4-------------------------------4--------------
-------4-6-4-6-7---------7-4---------------------------4--------------
-4-5-7-----------------------5-4-2---------------------2--------------
-----------------------------------5-1--------------------------------


2---------------------------------------------------------------------
----------------------------------------------------------------------
----------------------------------------------------------------------
----------------------------------------------------------------------
----0---2-2---4-------------------------------------------------------
-----------------0---2-2---4------------------------------------------

Play Part A as rhythm over this
----------------------------------------------------------------------
--2--------------------------------5~~~-------------------------------
------5----4~~~~~~-----4-3----2----------4-2-4-5-4-2---------2--------
-----------------------------------------------------4-2-4-2---5-4----
----------------------------------------------------------------------
----------------------------------------------------------------------


----------------------------------------------------------------------
-----------------5~~~~~~----------------------------------------------
--4-3------2----------------------------------------------------------
----------------------------------------------------------------------
----------------------------------------------------------------------
----------------------------------------------------------------------

Play 2x (Guitar 1)
----------------------------------------------------------------------
----------------------------------------------------------------------
----------------------------------------------------------------------
----------------------------------------------------------------------
----0---2-2---4-------------------------------------------------------
-----------------0---2-2---4------------------------------------------



Guitar 2

---12----10-----12---9------------9---9-------------9----9------------
---10----12--------------12--9----10--10---12--9----10---10--12--9----
----------------------------------------------------------------------
----------------------------------------------------------------------
----------------------------------------------------------------------
----------------------------------------------------------------------

Rhythm Play Part A

2nd Guitar

----------------------------------------------------------------------
-2---------------------------------------------------------2----------
-----5----4~------4--3-----2~~~~-----4-2-4-5-4-2--------------5--4~~~-
-------------------------------------------------4-2--4-2-------------
----------------------------------------------------------------------
----------------------------------------------------------------------


----------------------------2-----------------------------------------
------------2----5~~~~~-------5-2-----------------2-------------------
-4-3-------------------------------5-4-2---4-2------5--4~~~---4-3-----
-----------------------------------------4-----4----------------------
----------------------------------------------------------------------
----------------------------------------------------------------------


----------------------------------------------------------------------
----------------------------------------------------------------------
-2~~~--------4-2-4-5-4-2----------------------------------------------
-------------------------4-2------------------------------------------
----------------------------------------------------------------------
----------------------------------------------------------------------


----------------------------------------------------------------------
--------2----------------------5~-------------------------------------
-----------5---4~-----4-3---2-----------------------------------------
--4--2----------------------------------------------------------------
----------------------------------------------------------------------
----------------------------------------------------------------------

Part [G] played at beginning of song, repeat


Lead

------------------14-10-16-12--16p12h16--12~~~~~----------------------
-17--14~~~~~----------------------------------------------------------
---------------------------------------------------10-----------------
-------------------------------------------------------11~~~~~~-------
----------------------------------------------------------------------
----------------------------------------------------------------------


4-1-------1-7-4-------4-5-2-------2-9-5-------8-7-4-------4-10-7------
----3---3-------6-3-6-------2---2-------7---7-------6-3-6-------------
------4-----------------------2-----------6---------------------------
----------------------------------------------------------------------
----------------------------------------------------------------------
----------------------------------------------------------------------


--------7-9--------------9--14-9----------9-10--------------13-10-----
--9-6-9-----10-------------------10----10------12-9----9-12-------12--
---------------11----11-------------11--------------10----------------
------------------11--------------------------------------------------
----------------------------------------------------------------------
----------------------------------------------------------------------


------10-14-9----------9-17-14----------14--17-14----------14-14-11---
-9-12---------10----10---------14----14-----------16-13-16------------
-----------------11---------------14----------------------------------
----------------------------------------------------------------------
----------------------------------------------------------------------
----------------------------------------------------------------------


----------11---17--14~--14-14-16---16-13-17-14-16-13-14-10-13---------
-13-10-13-----------------------------------------------------14-15---
----------------------------------------------------------------------
----------------------------------------------------------------------
----------------------------------------------------------------------
----------------------------------------------------------------------


----------------------------------------------------------------------
-12-12-10-15----14----12----10----------------------------------------
-------------13----11----10-------13----11---10---------------11h13---
-------------------------------12----11----9-------12----11-----------
------------------------------------------------12----11----9---------
----------------------------------------------------------------------


----------------------------------------------------------------------
----------------------------------------------------------------------
-------------------------------13~-------13-13-11-9--11~~~~~~~~~------
--------------------11--11--------------------------------------------
-8----9-9---11------9----9--------------------------------------------
----------------------------------------------------------------------


---------------9-14--12-10-9-10-9-10-9-------------9-10-9-------------
------------10-------------------------12-10-9------------12-10-9-----
---------11------------------------------------11-----------------11--
------11--------------------------------------------------------------
-9-12-----------------------------------------------------------------
----------------------------------------------------------------------


--------------------10----9-10-12-9-10-12-9-10-12-14-10-12-14-16------
9-10--12-10~~~~~-------12---------------------------------------------
----------------------------------------------------------------------
----------------------------------------------------------------------
----------------------------------------------------------------------
----------------------------------------------------------------------


-12-14-16-17-14-16-17-16-14-21-14-16-17-16-14--21-----17h21p17--------
----------------------------------------------------------------19----
----------------------------------------------------------------------
----------------------------------------------------------------------
----------------------------------------------------------------------
----------------------------------------------------------------------


-21--19--------14---17-16h17p16--14-------12--------------------------
---------/15------------------------17-12------------------------12---
----------------------------------------------14-13-14--14-13---------
--------------------------------------------------------------14------
----------------------------------------------------------------------
----------------------------------------------------------------------


-----------------------------------------------------------------12---
--------------------------------------------------------12-14-15------
-------------13-------13~~~~----------------------11-14---------------
-12-14----11----14-11--------------------11-12-14---------------------
-------12-----------------------11-12-14------------------------------
----------------------------------------------------------------------


-14-16~~~~~---16-12-/-14--12-14-12-10-9-20-9-20-9-7-------------9-10--
----------------------------------------------------10-9-7-9-10-------
----------------------------------------------------------------------
----------------------------------------------------------------------
----------------------------------------------------------------------
----------------------------------------------------------------------


-9-7------------------------------------------------------------------
-----10-9-7-9-10-7-----7----------------------------------------------
-------------------7-9---9-7-6-7-6-4--------7~----7-7-7-7--7-7-7-7----
-------------------------------------7-6-4----------------------------
----------------------------------------------------------------------
----------------------------------------------------------------------


------------------------------------12-14-12----------12--------------
---------------------------12-14-15----------15-14-12----15-14----14--
-7-7-7-7--9------/11-13-14-------------------------------------14-----
----------------------------------------------------------------------
----------------------------------------------------------------------
----------------------------------------------------------------------


-----------------------12-14-------------12-14-16----------12-14-16---
12~~~---------12-14-15----------12-14-15----------12-14-15------------
--------13-14----------------14---------------------------------------
----------------------------------------------------------------------
----------------------------------------------------------------------
----------------------------------------------------------------------


-12-14-16-17-14-16-19-16-17-19-21--19~~~~~~~~~~~~~~~~~~~~~~~~~--------
----------------------------------------------------------------------
----------------------------------------------------------------------
----------------------------------------------------------------------
----------------------------------------------------------------------
----------------------------------------------------------------------


-17-19-17-16-17-19--21-19-17-19-17-16-17-19-16-13--16-19-17-16hold----
----------------------------------------------------------------------
----------------------------------------------------------------------
----------------------------------------------------------------------
----------------------------------------------------------------------
----------------------------------------------------------------------


-17--19--21hold--19--17-19-16-17-19-17-17-19-21-19-17-19-17-16--------
---------------------------------------------------------------19-----
----------------------------------------------------------------------
----------------------------------------------------------------------
----------------------------------------------------------------------
----------------------------------------------------------------------


-17-16----------16-17-19-21-19-17-19-17-16----17-16-------16----------
-------19-18-19----------------------------19-------19-18----19-18-15-
----------------------------------------------------------------------
----------------------------------------------------------------------
----------------------------------------------------------------------
----------------------------------------------------------------------


----------------------------------------------------------------------
-19-18-15-19-18-15-14-------------------------------------------------
----------------------16-14-13----------13----------------------------
-------------------------------16-15-16----16-15-12-11----------------
-------------------------------------------------------14-12-11-------
-----------------------------------------------------------------14---


----------------------------------------------------------------------
----------------------------------------------------------------------
-------------11-11-13-11-10-------------------------------------------
-------12-12----------------12-11-9---12-11-12-11-9-------------------
-12-12------------------------------9---------------12-11-9-----------
-------------------------------------------------------------10--10---


-------------------------------------10--10--13--14--16--17--21-------
----------------------------------------------------------------------
----------------------13-11-10~~~~------------------------------------
--------------9-11-12-------------------------------------------------
---11-11-9-11---------------------------------------------------------
-9--------------------------------------------------------------------


-21~~---------21--h19h21p19---17---19--17---19---17--19--17---16---14~
-14~~-----------------------------------------------------------------
--------------14--h13h14p13---11---13--11---13---11--13--11---13---11~
----------------------------------------------------------------------
----------------------------------------------------------------------
----------------------------------------------------------------------


Play Part A as rhythm over this
----------------------------------------------------------------------
--2--------------------------------5~~~-------------------------------
------5----4~~~~~~-----4-3----2----------4-2-4-5-4-2---------2--------
-----------------------------------------------------4-2-4-2---5-4----
----------------------------------------------------------------------
----------------------------------------------------------------------


----------------------------------------------------------------------
-----------------5~~~~~~----------------------------------------------
--4-3------2----------------------------------------------------------
----------------------------------------------------------------------
----------------------------------------------------------------------
----------------------------------------------------------------------



=======================================================================
h = hammeron                    Judy Letostak
p = pulloff                     Internet letostak@ix.netcom.com (doesn't work)
/\ = slide                      Fidonet 1:202/762 (defunct)
x = ghost note                  MetalNet 282:100/2 (defunct)
t = tap (right hand)            The Music Shop BBS (619)423-4970 24hrs (closed)
~ = vibrato                     * = picked harmonic
bf = bend full                  tr = trill
rb = release bend               p.s. = pick scrape
dive = dive with bar            b = bend / step written over note
% = repeat bar                  + = natural harmonic
========================================================================
The Music Shop BBS (619)423-4970  24hrs
Tons of music files, tab, lyrics, pictures, sound files....LORD, BRE
Falcon's Eye (interplanetary).  Internet Email and USENET. Unsigned/
Indie band support, free of cost ask for more details.

the bbs and the above email doesn't work...it's so old...
but the information about the rest of the stuff is still good...
h is still a hammeron p is still a pulloff

If you've read this far and remember me, you can find the rest
of my lessons and other tabs @ http://gypsy.sytes.net
uh, when my internet connection is up and running that is =]
  development and support by
dmitry ivanov