rock
 
|tablatures   |lyrics   |discussion forums   |more tabs @ XGuitar.com

Yngwie Malmsteen tabs

Presto Vivace guitar tab

			  PRESTO VIVACE
			       
                      from  Concerto Suite
                   by Yngwie Johann Malmsteen

   

una pila de arpegios, para agilizar los dedos de las manos!


--12p9---------9--12-10-9-----------------------------------
-------10---10------------12-10-9---------------------------
----------9-----------------------11-9-11-9-----------------
--------------------------------------------12-11-9--12-11~-
------------------------------------------------------------
------------------------------------------------------------


--12p9---------9-12-10-9------------------------------------
-------10---10-----------12-10-9----------------------------
----------9----------------------11-9-11-9-------9----------
-------------------------------------------12-11---12-11-9--
------------------------------------------------------------
------------------------------------------------------------


-------------
-------------
-------------
-12-11-9-----
---------12~-
-------------



-7p4-------4-7-8p5-------5-8--10p7--------7-10--12p9-12-
-----6---6---------7---7-----------9----9---------------
-------7-------------8---------------10-----------------
--------------------------------------------------------
--------------------------------------------------------
--------------------------------------------------------



--12p9---------9-12-10-9------------------------------------
-------10---10-----------12-10-9----------------------------
----------9----------------------11-9-11-9-------9----------
-------------------------------------------12-11---12-11-9--
------------------------------------------------------------
------------------------------------------------------------


-------------
-------------
-------------
-12-11-9-----
---------12~-
-------------


-9p5-------5--10p7-------7--9p5-------5--7p4-------4--
-----7---7---------7---7--------7---7--------6---6----
-------6-------------7------------6------------7------
------------------------------------------------------
------------------------------------------------------
------------------------------------------------------



--5p2-------2-5p2--7pp4-------4-7p4-5p2-------2-5p2-7p4---4h7-7~-
------2---2-------------5---5-----------2---2-----------5--------
--------2-----------------4---------------2----------------------
-----------------------------------------------------------------
-----------------------------------------------------------------
-----------------------------------------------------------------



-------------------------------------------------------------
-------------------------------------------------------------
-------------------------------------------------------------
-------------------------------------------------------------
-------------------------------------------------------------
-------------------------------------------------------------



-------------------------------------------------------------
-------------------------------------------------------------
-------------------------------------------------------------
-------------------------------------------------------------
-------------------------------------------------------------
-------------------------------------------------------------


-------------------------------------------------------------
-------------------------------------------------------------
-------------------------------------------------------------
-------------------------------------------------------------
-------------------------------------------------------------
-------------------------------------------------------------



-------------------------------------------------------------
-------------------------------------------------------------
-------------------------------------------------------------
-------------------------------------------------------------
-------------------------------------------------------------
-------------------------------------------------------------


-------------------------------------------------------------
-------------------------------------------------------------
-------------------------------------------------------------
-------------------------------------------------------------
-------------------------------------------------------------
-------------------------------------------------------------



-------------------------------------------------------------
-------------------------------------------------------------
-------------------------------------------------------------
-------------------------------------------------------------
-------------------------------------------------------------
-------------------------------------------------------------



-------------------------------------------------------------
-------------------------------------------------------------
-------------------------------------------------------------
-------------------------------------------------------------
-------------------------------------------------------------
-------------------------------------------------------------



-------------------------------------------------------------
-------------------------------------------------------------
-------------------------------------------------------------
-------------------------------------------------------------
-------------------------------------------------------------
-------------------------------------------------------------




-------------------------------------------------------------
-------------------------------------------------------------
-------------------------------------------------------------
-------------------------------------------------------------
-------------------------------------------------------------
-------------------------------------------------------------



-------------------------------------------------------------
-------------------------------------------------------------
-------------------------------------------------------------
-------------------------------------------------------------
-------------------------------------------------------------
-------------------------------------------------------------



to be continued...
  development and support by
dmitry ivanov