rock
 
|tablatures   |lyrics   |discussion forums   |more tabs @ XGuitar.com

Yngwie Malmsteen tabs

Never Die guitar tab

		Yngwie Malmsteen's Never Die 

							Transcribed by Mikko Kosonen
								mkosonen@hotmail.com

The Middle Arpeggio part:

--12-8---------8--12-8--------8--10-7--------7--10-7--------7--8-5-------5--8-5-------5--
-------10---10---------10--10---------9----9---------9----9--------5---5--------5---5----
----------9---------------9-------------10-------------10------------5------------5------
-----------------------------------------------------------------------------------------
-----------------------------------------------------------------------------------------
-----------------------------------------------------------------------------------------

--7-4-------4--7-4-------4--10-7--------7--10-7--------7--12-8---------8--12-8---------8-
------6---6--------6---6---------9----9---------9----9---------10---10---------10---10---
--------7------------7-------------10-------------10--------------9---------------9------
-----------------------------------------------------------------------------------------
-----------------------------------------------------------------------------------------
-----------------------------------------------------------------------------------------

--14-11----------11--14-11----------11---16--
--------13----13-----------13----13----------
-----------14-----------------14-------------
---------------------------------------------
---------------------------------------------
---------------------------------------------
  development and support by
dmitry ivanov