rock
 
|tablatures   |lyrics   |discussion forums   |more tabs @ XGuitar.com

Yngwie Malmsteen tabs

Icarus Dream Suite - Opus 4 bass tab

Yngwie Malmsteen - Icarus Dream Suite - Opus 4
from Rising Force
tune down 1/2 step

drums
|-------------|------------|-----------|-----------|--------------------|
|-------------|--5---------|-----------|--5--------|--------------------|
|-------------|-------5----|---7-------|-------5---|----3---------------|
|-------------|------------|---0-------|-----------|--------------------|


|-----------|---------|-----------------|------------------------------|
|--5--------|---------|-----------------|------------------------------|
|------5----|--7------|---(7)-----------|-------------(7)--------------|
|-----------|--0------|---(0)-----------|------------------------------|


Acoustic guitars


Bass enters (play 4x)

||------------------------------------|---------------------------------
||o-----------------------------------|---------------------------------
||o-------------------------------7\--|---------------------------------
||----0----0--0--0--0--0----0--0------|-0----0--0--0--0--0--0--2--3--5--


---------||-----------------------------------|-------------------------
--------o||-----------------------------------|-------------------------
--------o||-2-2-2-2-2-2-2-2--0-0-0-0-0-0-0-0--|-------------------------
--3--2---||-----------------------------------|-4-4-4-4-4-4-4-4-0-0-0-0-


-----------|----------------------------------|-------------------------
-----------|----------------------------------|-0-0-0-0--0-0-0----0-0-0-
-----------|-0-0-0-0-0-0-0-0------------------|----------------0--------
--4-4-4-4--|-----------------3-3-3-3-3-3-3-3--|-------------------------


--------------|---------------------------------|--------3-2-0----------
--0--0-0-0-2--|-3-3-3-3-3-3-3-3-0-0-0-0-0-0-0-0-|------2-------3-2-0-3-2
--------------|---------------------------------|--0-4------------------
--------------|---------------------------------|-----------------------


--------------|-------------------------------|----------2-2-2-2-4------|
--0----2-0----|-------------------------------|--------2-----------4----|
----3------3--|--1-1-1-1-1---1----------------|-0-0-0----------------2\-|
--------------|----------------4-4-4-4-4---4--|-------------------------|

 play 2x=================================================
|--------------------------|-----------------------------|
|--------------------------|-----------------------------|
|----------------------7\--|-----------------------------|
|-0---0-0-0-0-0----0-0-----|--0--0-0-0-0-0---0-2-3-5-3-2-|


Interlude

|---2-----|--0-----|-------|---------|--------------|------------------|
|---------|--------|-------|---------|--------------|------------------|
|---------|--------|--9----|--7------|---6----------|--------7---------|
|---------|--------|-------|---------|--------------|------------------|


|-11-9-8----9-8------8--------|-----------------------------|
|--------10-----10-9---10-9-7-|-10-9-7----9-7------7--------|
|-----------------------------|--------10-----10-9---10-9-6-|
|-----------------------------|-----------------------------|

  Guitar Solo play 6times
||-------------------------------------|------------------------------||
||o------------------------------------|-----------------------------o||
||o-------------------------------7\---|-----------------------------o||
||----0---0--0---0--0--0----0--0-------|-0--0-0-0-0-0----0-2-3-5-3-2--||

                                    Acoustic guitars
|----------------------------------|-----------------------------------|
|----------------------------------|-----------------------------------|
|--2--2----------3--3--------2-----|-----------------------------------|
|----------------------------------|-----------------------------------|


|----------------|-----2--2---------0-0-0-0-|--------------------------|
|--------2-------|-----------2--------------|--0--------------4--------|
|----------------|--0-----------0-----------|--------------------------|
|-0--0-------4---|--------------------------|--------------------------|


|--0---0--0--0---------|------5----------------|----------------0------|
|----------------4--4--|---------5-------------|-----------2-----------|
|----------------------|--3----------3---3--2--|--1----4---------------|
|----------------------|-----------------------|-----------------------|


|-4-4-4-4-4-4-4-4-2-2-2-2-2-2-2-2-|-1-1-1-1-1-1-1----------------------|
|---------------------------------|---------------2--------------------|
|---------------------------------|------------------------------------|
|---------------------------------|------------------0-0-0-0-0-0-0-0---|


|---------------------------------|-----------------------|-------------
|---------------------------------|-0-0-0-0-0-0-0-0--0-2--|-3-3-3-3-3-3-
|-0-0-0-0-0-0-0-0-----------------|-----------------------|-------------
|-----------------3-3-3-3-3-3-3-3-|-----------------------|-------------


-----------------------|---------3-2-0----------------------|-----------
--3-3------------------|-------2-------3-2-0-3-2-0---2-0----|-----------
------0-0-0-0-0-0-0-0--|--0--4---------------------3-----3--|-1-1-1-1-1-
-----------------------|------------------------------------|-----------


---------------------------|---------9----|--7-----|---------|---------|
--------------0-3-2-0------|---------7----|--0-----|--0------|--0/-----|
---1-1-1----1---------3-1--|--0---0--0----|--------|---------|---------|
----------4----------------|--------------|--------|---------|---------|


|-------|--------|--------|-------|---------|----3--5---|---------------|
|--/7---|--0-----|---0----|--0----|----0----|-0---------|------------3p2|
|-------|--------|--------|-------|---------|-----------|/5h7p3p2--3----|
|-------|--------|--------|-------|---------|-----------|---------------|


|----------------|------------|----------------------------------------|
|p0--------------|--0---------|----------------------------------------|
|-----3--2----3--|------1--1--|-----1----------------------------------|
|----------------|------------|----------------------------------------|


Repeat and fade

||----------------------------------|-----------------------------------||
||o-0-0-0-0-0-0-0-0-0-0-0-0-0-0-0-0-|-0-0-0-0-0-0-0-0-0-0-0-0-0-0-0-0--o||
||o---------------------------------|----------------------------------o||
||----------------------------------|-----------------------------------||


=======================================================================
h = hammeron                    Judy Letostak
p = pulloff                     Internet letostak@ix.netcom.com
/\ = slide
x = ghost note
t = tap (right hand)
~ = vibrato                     * = picked harmonic
bf = bend full                  tr = trill
rb = release bend               p.s. = pick scrape
dive = dive with bar            b = bend / step written over note
% = repeat bar                  + = natural harmonic
========================================================================
  development and support by
dmitry ivanov