rock
 
|tablatures   |lyrics   |discussion forums   |more tabs @ XGuitar.com

Yngwie Malmsteen tabs

Fugue guitar tab

Yngwie Malmsteen "Fugue"
from Concerto for Electric Guitar and Orchestra in E Flat Minor Op. 1
jmakris@hotmail.com
John Makris

Side Note:  When I figured this out, I was in standard tuning (E A D G B E)
becuase I am too lazy too go to E Flat, here is the song in standard tuning,
and also, there are few wrong parts, but it is really really close to being
right.




:Intro:Orchestra:
|-----------------------------------------------------------------------|
|-----------------------------------------------------------------------|
|--------8--8--7-8-10---11-8-10-7-8---8--------------------8--8--7-8-10-|
|------8----------------------------9---9-8--------------8--------------|
|----9--------------------------------------11-9-8-----9----------------|
|-11------------------------------------------------11------------------|

:Guitar:
|-14-13-11-----------------------|
|----------15-12-11--------------|
|-------------------13-11-10-----|
|----------------------------11~-|
|--------------------------------|
|--------------------------------|


|--------------------------------------------------|
|-------------------11-12-11-------------11--------|
|----------10-11-13----------13-11-10-11----11-10~-|
|-13-12-13-----------------------------------------|
|--------------------------------------------------|
|--------------------------------------------------|


|-------------------------------------11-7-------7-11-7-11/16-11----------11-16~-|
|-------------------11-12-11---------------9---9-----------------12----12--------|
|----------10-11-13----------13-11-10--------8----------------------13-----------|
|-13-12-13-----------------------------------------------------------------------|
|--------------------------------------------------------------------------------|
|--------------------------------------------------------------------------------|


|----------16--16--15-16-18~--19-16-18-15-16----15----------------|
|-------16-----------------------------------17----17-16----------|
|----16--------------------------------------------------18-16-15-|
|-18--------------------------------------------------------------|
|-----------------------------------------------------------------|
|-----------------------------------------------------------------|


|--------------------------------------------16--16--19-18-16-15~-|
|-------------------16-17-----------------16----------------------|
|----------15-16-18-------18-16-15-----16-------------------------|
|-18-17-18--------------------------18----------------------------|
|-----------------------------------------------------------------|
|-----------------------------------------------------------------|


|--------------------------------------------------|
|-------------------11-12-11-------------11--------|
|----------10-11-13----------13-11-10-11----11-10~-|
|-13-12-13-----------------------------------------|
|--------------------------------------------------|
|--------------------------------------------------|


|-------------------------------------14-13-11----------------------|
|-------------------11-12-11-------------------15-12-11-------------|
|----------10-11-13----------13-11-10-------------------13-11-10----|
|-13-12-13-------------------------------------------------------11-|
|-------------------------------------------------------------------|
|-------------------------------------------------------------------|

                   t  p                                                                               repeat
|-11-------11-14-13-14-13-11-9-11/14~--16-18-19-18-19-16-19----16----------------18-----------------|--------|
|----11-12--------------------------------------------------19----19-18-16-15-16----19-18-16-15-16~-|--------|
|---------------------------------------------------------------------------------------------------|--------|
|---------------------------------------------------------------------------------------------------|--------|
|---------------------------------------------------------------------------------------------------|--------|
|---------------------------------------------------------------------------------------------------|--------|


Basically thats it, except for a few other riffs wich ill get after. 
Now it just repeats that stuff over, listen to the song for placement.
  development and support by
dmitry ivanov