rock
 
|tablatures   |lyrics   |discussion forums   |more tabs @ XGuitar.com

Yngwie Malmsteen tabs

Fire In The Sky guitar tab

					Transcribed by Mikko Kosonen
					mkosonen@hotmail.com


		Yngwie Malmsteen Fire In The Sky

  Intro

I-----------------------------------------------------I
I-*-------------------------------------------------*-I
I------11-12--9-11----9-------------------------------I
I---9--------------12----12-11-9-12--11-9-8-11---9----I
I-*-------------------------------------------------*-I
I-----------------------------------------------------I


I---------------------------------------------------I
I-*-----------------------------------------------*-I
I------11-12--9-11----9-----------------------------I
I---9--------------12----12-11-9-12--11-9-8-11------I
I-*-----------------------------------------------*-I
I---------------------------------------------------I 

  Etc.

  Interlude


I----15-12-14-15-14-12----------------------------------------------------------
I-*---------------------14-11-12-14-12-11---------------------------------------
I------------------------------------------12-9-11-12-11-9----------------------
I-----------------------------------------------------------11-8-9-11-9-8-------
I-*-----------------------------------------------------------------------------
I-------------------------------------------------------------------------------
     
-----14-10-12-14-12-10--10-7-9-10-9-7-------------------------------------------
---------------------------------------7-3-5-7-5-3------------------------------
----------------------------------------------------7-4-6-7-6-4-----------------
--------------------------------------------------------------------------------
--------------------------------------------------------------------------------
--------------------------------------------------------------------------------
      
-----9-6-------6--12-9----------9--15-12----------12--18-15----------15--19----I
---------8---8---------11----11----------14----14-----------17----17---------*-I
-----------9--------------12----------------15-----------------18--------------I
-------------------------------------------------------------------------------I
-----------------------------------------------------------------------------*-I
-------------------------------------------------------------------------------I

  development and support by
dmitry ivanov