rock
 
|tablatures   |lyrics   |discussion forums   |more tabs @ XGuitar.com

Yngwie Malmsteen tabs

Final Curtain guitar tab

Yngwie Malmsteen - Final Curtain
from Fire and Ice
tune down 1/2 step
letostak@ix.netcom.com (Judy Letostak)
music.shop@lasernet.com



|--------------------------------------8--7--5---------------------------
|-----------------------------------------------8--7--5\4----------------
|--------------------5--4--2-------------------------------5--4--2-------
|-----------------------------5--4--2-------------------------------5p4--
|--3--2--0---------------------------------------------------------------
|-----------3--2--0------------------------------------------------------



-----------|---0-----------------------|--------------------------0-----|
-----------|---0-----------------------|--------------------------0-----|
-----------|---4-----------------------|--------------------------4-----|
--p2p0-----|---4--------5--------------|-7--------5~----2---4-----4-----|
-----------|---2--------3--------------|-5--------3~----0---2-----2-----|
-----------|---0--0--0-----0--0--0--0--|----0--0------------------0-----|



|--0--0--------------x\p.s.-----------|----------------------------------
|--0--0--------------x\---------------|----------------------------------
|--4--4-------------------------------|-------------------5--4--2--------
|--4--4---------5---------------------|----------------------------5--4--
|--2--2------0--3---------------------|-3--2--0--------------------------
|--0--0---0-------------------x--10\--|----------3--2--0-----------------


                                        Rhy Fig.1
-----8--7--5---------------------------|--------------------------------|
--------------8p7-5\3------------------|--------------------------------|
----------------------5p4p2------------|--4-----------------------------|
-2---------------------------5p4p2p0---|--4--------5--------------------|
---------------------------------------|--2--------3--------------------|
---------------------------------------|--0--0--0-----0--0--0--0--------|



|-------------------------|--------------------------|-------------------|
|-------------------------|--0-----------------------|-------------------|
|-------------------------|--4-----------------------|-------------------|
|--7--------5---2--4--5---|--4--------5--------------|-7--------5--2--4-5|
|--5--------3---0--2--3---|--2--------3--------------|-5--------3--0--2-3|
|-----0--0----------------|--0--0--0-----0--0--0--0--|----0--0-----------|



|--0-----------------------|--------------------------|--0---------------
|--0-----------------------|--------------------------|--0---------------
|--4-----------------------|--------------------------|--4---------------
|--4--------5--------------|--7--------5----2--4--5---|--4--------5------
|--2--------3--------------|--5--------3----0--2--3---|--2--------3------
|--0--0--0-----0--0--0--0--|-----0--0-----------------|--0--0--0-----0---



-----------|-------------------------------------8--7--5-----------------
-----------|----------------------------------------------8p7p5\3--------
-----------|-------------------5--4--2-----------------------------5p4p2-
-----------|----------------------------5--4--2--------------------------
-----3-----|-3--2--0-----------------------------------------------------
--0-----0--|----------3--2--0--------------------------------------------



------------|-----------|
------------|-----------|
------------|-----------|
--5p4p2p0---|-----------|end Rhy Fig.1
------------|----2------|
------------|----0------|


Verse (Rhy Fig.2)

||----------------------------|-----------0---0-----|-------2--3---3--2--|
||--------0-------------------|------------------0--|-------------------3|
||o-------------0----0--------|--0------------------|----4---------------|
||o----------4----------4-----|-----4---------------|-2------------------|
||-------------------------5--|--------5------------|--------------------|
||----0-----------------------|---------------------|--------------------|


                                 Pre-Chorus
|--3--2-----------3------------|--------------------------------------7--|
|--------3--2---------2--------|--------------------------------------8--|
|-------------------------4----|-----------2-----2--------------------7--|
|------------------------------|-----------2-----2-----------------------|
|------------------------------|-0---0--0--0--0--0--0--0--0--0--0--0-----|
|------------------------------|-----------------------------------------|



|-----5------|------------------------------------------|---------------|
|-----6------|---------------------------------------8--|----6----------|
|-----5------|---------------------------------------7--|----5----------|
|------------|------------------------------------------|---------------|
|------------|-0---0--0--0--0--0---0--0--0--0--0--0-----|---------------|
|------------|------------------------------------------|---------------|


 Rhy Fig.3                             End 3 Rhy Fig.4
|--7--7-----8~------|--11-------------------|--7------8---8--------------|
|--7--7-----8~------|--12-------------------|--7------8---8--------------|
|--8--8-----9~------|--11-------------------|--8------9---9--------------|
|--9--9----10~------|--13----12/14----9--9--|--9-----10--10--------------|
|-------------------|-----------------------|----------------------------|
|-------------------|-----------------------|-----------------12/19------|



|---------------------------------------------------|--------------------
|-----------------------------------------4--5--7---|--------------------
|-----------------------------------4--5------------|-----End-Fig.4------
|--------------------------4--5--7------------------|--------------------
|--------3--6--7--3--6--7---------------------------|--------------------
|--5--7---------------------------------------------|--------------------


Chorus (play Rhy Fig.1)


Guitar Solo

|-------5--7b(8)--rb7---h8----------|----10---8p7--------|--------5------
|----5------------------------------|-----------------8--|-10~-------8p5-
|-5--------------------------7bf----|--------------------|---------------
|-----------------------------------|--------------------|---------------
|-----------------------------------|--------------------|---------------
|-----------------------------------|--------------------|---------------



-----------5--8bf----|-rb8---5--8--7--5--4--7--5--4/5--8p7--5/7--10--8--8
-------5-------------|---------------------------------------------------
--7bf----------------|---------------------------------------------------
---------------------|---------------------------------------------------
---------------------|---------------------------------------------------
---------------------|---------------------------------------------------



--8--10--12--10------10--8-------|-8--10-------10----8-10----8-10----8-10-
-----------------12---------12---|--------12p8----12------12------12------
---------------------------------|----------------------------------------
---------------------------------|----------------------------------------
---------------------------------|----------------------------------------
---------------------------------|----------------------------------------



------8-10-12-13----------10-12-13-12-10-------|-10/12/17--17h19-19b(20)~
--12-------------10-12-13----------------13-12-|-------------------------
-----------------------------------------------|-------------------------
-----------------------------------------------|-------------------------
-----------------------------------------------|-------------------------
-----------------------------------------------|-------------------------



--17------|-----20--17~---------17-------17-19----17-19b(20)~--|-17-19---
------18--|-17------------18-20----18-20-------20--------------|---------
----------|----------------------------------------------------|---------
----------|----------------------------------------------------|---------
----------|----------------------------------------------------|---------
----------|----------------------------------------------------|---------



-17h19--17~----|-19/24--19h20p19-17--------------------------------------
---------------|--------------------20-19-17\16--------------------------
---------------|--------------------------------17p16--------------------
---------------|--------------------------------------19-17----16-17-19--
---------------|--------------------------------------------19-----------
---------------|---------------------------------------------------------



--------------------17-19-17--------|-17---------------------------------
--------------19-19----------20-19--|----20-19-17-20-19-17\16-19-17-16---
--16-17-19/20-----------------------|----------------------------------17
------------------------------------|------------------------------------
------------------------------------|------------------------------------
------------------------------------|------------------------------------



---------------------------------------------------------------|---------
--17-16-------16-----------------------------------------------|---------
--------17p16----17-16-14-17-16-14----16-14-------14-----------|---------
-----------------------------------17-------17-16----17-16-14--|-17-16---
---------------------------------------------------------------|---------
---------------------------------------------------------------|---------



---------------------------------------------------------------|---------
-----------------------------------16/19----------19/22--------|-22bf----
-----------------------------14h17-------20p17h20-------23p20--|---------
--14\13-16-14-13----14p13h16-----------------------------------|---------
-----------------15--------------------------------------------|---------
---------------------------------------------------------------|---------



---------23b(24)---20p19p17-----------------|----------------------------
----------------------------20-19-17--------|----------------------------
--23-23------------------------------20-19--|--17\16----------------16---
--------------------------------------------|--------19-17-------14------
--------------------------------------------|--------------17-17---------
--------------------------------------------|----------------------------



--------------15----------|----------------------------------------------
--------------15----------|----------------------------------------------
--16p14~~-----------------|---------------------14-------14-16-14--------
------------------13tr14--|--16-13-16--14-16-17----16-17----------17-16--
--------------------------|----------------------------------------------
--------------------------|----------------------------------------------



--------------------------|----------------------------------------------
-----------------------16-|----16-19p16--------17h20p17\16---------------
--------------------16----|-16----------16-----------------17------------
-14-17-16-14--14/16-------|----------------16-----------------19p17------
--------------------------|----------------------------------------------
--------------------------|----------------------------------------------



-----------------------------------------------------|-------------------
--17h20p17\16-----------16-17-19p17p16-------16------|-------------------
--------------17----17-----------------17p16-----16--|-14\12/14-14-12-11-
-----------------19----------------------------------|-------------------
-----------------------------------------------------|-------------------
-----------------------------------------------------|-------------------



--------------------------------------------|----------------------------|
---------------------------12---------------|----------------------------|
--12--14p12p11----11----12-----14bf--14p12--|----------------------------|
---------------14----14---------------------|--14~~---/------------------|
--------------------------------------------|----------------------------|
--------------------------------------------|----------------------------|



|----------------------17--20bf--|--22bf----22bf---rb22------------------|
|-17~--17~--17~----19------------|---------------------------------------|
|--------------------------------|---------------------------------------|
|--------------------------------|---------------------------------------|
|--------------------------------|---------------------------------------|
|--------------------------------|---------------------------------------|



|------------------------------8-7-5-----------------------|-------------|
|------------------------------------8p7p5\4---------------|-------------|
|----------------5-4-2-----------------------5-4-2---------|-------------|
|----------------------5-4-2-----------------------5p4p2p0-|-------------|
|--3-2-0---------------------------------------------------|-------------|
|---------3-2-0--------------------------------------------|-0w/bar------|



|-----------------|------------15----------------------------------------|
|--15bf-----15bf--|-rb15p13p12----13p12----------------------------------|
|-----------------|---------------------14-12-11~------------------------|
|-----------------|------------------------------------12/14\------------|
|-----------------|------------------------------------------------------|
|-----------------|------------------------------------------------------|



|---------------------|--------------------------------------------------|
|---------------------|----------------------------------------------17bf|
|---------------------|-------------------------------------16-16-16-----|
|--\9~-----9~----9~---|-9-9-9-/14-14-14-/16-16-16-/17-17-17--------------|
|---------------------|--------------------------------------------------|
|---------------------|--------------------------------------------------|



|----------------------------------------17-19b(20)-|-19b(20)---19b(20)--
|--rb17\12/19----------------16-17h19/20------------|--------------------
|-------------16-16-16-17-19------------------------|--------------------
|---------------------------------------------------|--------------------
|---------------------------------------------------|--------------------
|---------------------------------------------------|--------------------



--rb19---19--19~-------17-----|----------------------------17-19-17-21p17
--------------------20----20--|-19-17-20-19-17-16-17-19-20---------------
------------------------------|------------------------------------------
------------------------------|------------------------------------------
------------------------------|------------------------------------------
------------------------------|------------------------------------------



-----------------------------17-19p17----17-------------|--------------x-
--20-19-17-20-19-16-17-19-20----------20----20-19p17-20-|-19-17p16-19----
--------------------------------------------------------|----------------
--------------------------------------------------------|----------------
--------------------------------------------------------|----------------
--------------------------------------------------------|----------------



--19--19b(20)--rb19p17----------21b(23)--rb21-\x/19--19bf--rb19--17------
-----------------------20p19p17-------------------------------------20---
-------------------------------------------------------------------------
-------------------------------------------------------------------------
-------------------------------------------------------------------------
-------------------------------------------------------------------------



--19p17--------|--17--------------------------------------|--------------
--------20p19--|-----20-19-17-20-19-17\16-17~----/x--x\---|----15h17~----
---------------|---------------------------------/x--x\14-|-16-----------
---------------|------------------------------------------|--------------
---------------|------------------------------------------|--------------
---------------|------------------------------------------|--------------



|------------------------------------------------------------------------
|----------------------15-17-15-------------------------15---------------
|-17-16-14-13-14-16-17----------17-16----------14-16-17----17-14---------
|-------------------------------------18-16-18-------------------18-16-18
|------------------------------------------------------------------------
|------------------------------------------------------------------------



------------|------------------------------------------------------------
------------|-------------------------15--17------------------15--20-----
--14-16-17--|----------------------16--------16------------16------------
------------|-16p14-------14----14--------------17--14--17---------------
------------|-------17p16----18------------------------------------------
------------|------------------------------------------------------------



-----------------|-------------------------------------------------------|
--17--19~~~~~----|--/24~~~-----------------------------------------------|
-----------------|-------------------------------------------------------|
-----------------|-------------------------------------------------------|
-----------------|-------------------------------/14\--------------------|
-----------------|---------------0\dive-w/bar----------------------------|



With Rhy Fig.1 (first 8 measures)

|------------------------------------------------------------------------
|------------------------------------------------------------------------
|---------------------------------------------------------9------------9-
|-------------------------------10-9-------9-10-12-9----9---12-10-9-12---
|--x----------------7-10-7-9-10------10-12-----------10------------------
|-----x--x--x--x--x------------------------------------------------------



-----------|-------------------------------------------------------------
-----------|-------------------------------------------------------------
--------9--|-11----9-11-12-9-11-12/14-11-12-14/15-14-15~--14b(15)-rb14---
--10-12----|----12-------------------------------------------------------
-----------|-------------------------------------------------------------
-----------|-------------------------------------------------------------



---------|--------12---15-12---------x--15/19p15----------15-17b(18)-rb17
---------|-----12------------12----x-------------17----17----------------
--13~~---|--12-------------------x------------------16-------------------
---------|---------------------------------------------------------------
---------|---------------------------------------------------------------
---------|---------------------------------------------------------------



--p15-----15p14-----15--------|-----------20bf---rb20-------------------|
------17---------17-----18bf--|--rb18p17----------------19--------------|
------------------------------|------------------------------19-21------|
------------------------------|-----------------------------------------|
------------------------------|-----------------------------------------|
------------------------------|-----------------------------------------|



|--23b(24)---23b(24)--23b(24)--23b(24)--23b(24)~~-|--23b(24)-(24b)(26)---
|-------------------------------------------------|----------------------
|-------------------------------------------------|----------------------
|-------------------------------------------------|----------------------
|-------------------------------------------------|----------------------
|-------------------------------------------------|----------------------



--rb23------12-------------|-----------------------------15h17h19p17p15h17
-----------------12---11---|--------------17/19-15-17-19-----------------
---------------------------|--12--14/16~---------------------------------
---------------------------|---------------------------------------------
---------------------------|---------------------------------------------
---------------------------|---------------------------------------------



--p15----17p15-----|-15----------15h17h19p17p15h17p15--------------------
------19-------19--|----19-15-19----------------------19b(20)~--rb19-----
-------------------|-----------------------------------------------------
-------------------|-----------------------------------------------------
-------------------|-----------------------------------------------------
-------------------|-----------------------------------------------------



--------|--23b(24)\-------|
--p17---|-----------------|
--------|-----------------|
--------|-----------------|
--------|-----------------|
--------|-----------------|



=======================================================================
h = hammeron                    Judy Letostak                         
p = pulloff                     Internet letostak@ix.netcom.com
/\ = slide
x = ghost note
t = tap (right hand)
~ = vibrato                     * = picked harmonic
bf = bend full                  tr = trill
rb = release bend               p.s. = pick scrape
dive = dive with bar            b = bend / step written over note
% = repeat bar                  + = natural harmonic
  development and support by
dmitry ivanov