rock
 
|tablatures   |lyrics   |discussion forums   |more tabs @ XGuitar.com

Yngwie Malmsteen tabs

Facing The Animal guitar tab

Main Riff

-------------------------------------------------------------------------
-------------------------------------------------------------------------
-------------------------------------------------------------------------
-------------------------------------------------------------------------
-2-4-4-4-4---2-4-4-4-4---2-4-4-4-4--2-4-4-4-4----------------12-14-16------
-0-2-2-2-2---0-2-2-2-2---0-2-2-2-2--0-2-2-2-2--------12-14-16------------


-----------------------------12-14-16-20--------------------------------------
--------------------12-14-16-------------------------------------------------
-----------12-14-16----------------------------------------------------------
--12-14-16-------------------------------------------------------------------
--------------------------------------------------------------------------
--------------------------------------------------------------------------


Thats all i no have fun
  development and support by
dmitry ivanov