rock
 
|tablatures   |lyrics   |discussion forums   |more tabs @ XGuitar.com

Yngwie Malmsteen tabs

Enemy guitar tab

Yngwie Malmsteen - Enemy
from Facing the Animal
tune down 1/2 step
(Judy Letostak)

You can post this on your web, ftp, bbs whatever, without permission.
leave all the extra text in please.

Intro  repeat
----------------------------------------------------------------------
----------------------------------------------------------------------
----------------------------------------------------------------------
----------------------------------------------------------------------
----------------------------------------------------------------------
-----0--0----0--0-0-0-------------------------------------------------

repeat
---------------------------------------------3------------------------
----------------------------------3----------0----3-------------------
----------------------------------2----------0----2-------------------
----------------------------------0---------------0-------------------
----------------------------------------------------------------------
--0--0----0--0-0--0--x\---0--0--------0--0----------------------------


[A]  repeat
What an enemy you became to me...

----------------------------------------------------------------------
----------------------------------------------------------------------
----------------------------------------------------------------------
----------------------------------------------------------------------
----------------------------------------------------------------------
1--1--1-1--1-1-1--x-x-x--0--0----0--0-0--0--x-x--x--------------------

like so many we never could agree

----------------------------------------------------------------------
----------------------------------------------------------------------
----------------------------------------------------------------------
----------------------------------------------------------------------
------------------------------------------------ps\-------------------
-1--1---1-1---1-1--1--x--x-x---0--0---0--0--0-------------------------

oh....
repeat
----------------------3-------------|---------------------------------
----------3-----------0-------3-----|---------3-----------------------
----------2-----------0-------2-----|---------2-----------------------
----------0-------------------0-----|---------0-----------------------
------------------------------------|---------------------------------
--0--0--------0--0------------------|-0--0---------0--0--x\-----------



All the pain that i had to hide inside made me realize
though i was color blind i read the warning signs and put the past behind

rhythm
----------------------------------------------------------------------
----------------------------------------------------------------------
----------------------------------------------0--0--------------------
----------------------------------------------------------------------
----------------------------------------------------------------------
1--1--1-1--1-1-1--x-x-x--0--0----0--0-0--0----------------------------

lead w/above rhythm
----------------------------------------------------------------------
----------------------------------------------------------------------
-----9b--up/down-w/arm------------------------------------------------
----------------------------------------------------------------------
----------------------------------------------------------------------
----------------------------------------------------------------------


----------------------------------------------------------------------
----------------------------------------------------------------------
----------------------------------------------------------------------
----------------------------------------------------------------------
----------------------------------------------------------------------
1--1--1-1--1-1-1--x-x-x--0--0----0--0-0--0--x-x--x--------------------


---------------------------------------------------------------------0
-------------------------------------------------------------------0--
----------------------------------------------------------------------
----------------------------------------------------------------------
--------------------------------------------------------0--2-2--3-3---
1--1--1-1--1-1-1--x-x-x--0--0----0--0-0--0--x-x--x--------------------



im no longer waiting for a miracle ah

-1------------------0----1~w/bar-----------------------------0--------
-----3~~~------1-1-----------------3-3---1-0----------0-0------0------
------------2---------------------------------------------------------
----------------------------------------------------------------------
----------------------------------------------0--2-2------------------
----------------------------------------------------------------------

HOld my head up high.  the future's now
boh feet on the ground my...

-1--------------------------------0-0------1/3-3/5-~~~~~~-------------
-------3--3~~~~-----1-0------1-1-------0------------------------------
--------------------------2-------------------------------------------
----------------------------------------------------------------------
----------------------------------------------------------------------
----------------------------------------------------------------------

play 4x
--------------------3-------------------------------------------------
--------3-----------0------3------------------------------------------
--------2-----------0------2------------------------------------------
--------0------------------0------------------------------------------
----------------------------------------------------------------------
-0--0--------0--0-----------------------------------------------------


Rhythm for lead
----------------------------------------------------------------------
----------------------------------------------------------------------
----------------------------------------------------------------------
----------------------------------------------------------------------
----------------------------------------------------------------------
--2--2---3--2--0--2-2-2---3-2-0---------------------------------------

Lead

----------------------------------12-14~~w/bar---14-15--21-21-15------
-------------------------12-13-15-------------------------------------
----------------11-12-14----------------------------------------------
-------11-12-14-------------------------------------------------------
12-14-----------------------------------------------------------------
----------------------------------------------------------------------


-12-12-14-14-14~~~----14--14-14-15-12-15----15-14-15-12-15----15----15
-----------------------------------------15----------------15----14---
----------------------------------------------------------------------
----------------------------------------------------------------------
----------------------------------------------------------------------
----------------------------------------------------------------------


----15----15-14-15-12-15----15----15----15----------10-12-14-12-10----
-12----11----------------15----14----12----11-12-14----------------14-
----------------------------------------------------------------------
----------------------------------------------------------------------
----------------------------------------------------------------------
----------------------------------------------------------------------


----------------------------------------------------------------------
-12----------12-14-12--------------------------------------------12-15
----15-12-15----------15-14-12-11---------------------------11--------
----------------------------------14-12-11---------------12-----------
-------------------------------------------14-13~~~---13--------------
----------------------------------------------------------------------


----19----------19-----------21------------22~-----22--22-22w/bar-----
-19----20-19-20----20-19-20-----20-19-20------------------------------
----------------------------------------------------------------------
----------------------------------------------------------------------
----------------------------------------------------------------------
----------------------------------------------------------------------


--14~~--12-------12-15-14-12----14-12-------12-------------------12---
-----------15-14-------------15-------15-14----15-14-12-12-14-15------
----------------------------------------------------------------------
----------------------------------------------------------------------
----------------------------------------------------------------------
----------------------------------------------------------------------


-14-12----------------------------------------------------------------
-------15-14--11----------------11-12-14-12-11----13-12-11-----12-11--
-----------------14-12-11-12-14----------------14----------12---------
----------------------------------------------------------------------
----------------------------------------------------------------------
----------------------------------------------------------------------


----------------------------------------------------------------------
----------------------------------------------------------------------
-14-11----12-11-------11-------------------------------------------12-
-------14-------14-12----14-12-11-14-12-11-14-12-11----------12-14----
----------------------------------------------------14-13-14----------
----------------------------------------------------------------------


------------------------------------------2-3-2---2-3-----2-3-2-------
----------------------------------------5-------5---------------5-----
-14-12-11----11~w/bar----11p9---/3--------------------3-4-------------
----------14----------------------------------------------------------
----------------------------------------------------------------------
----------------------------------------------------------------------


--------3-----------6-3-------9-6-------12-9----------9-12-15-12------
------5---5-2---2-5-----5-2-5-----8-5-8-------11-8-11------------14---
-3-4----------3-------------------------------------------------------
----------------------------------------------------------------------
----------------------------------------------------------------------
----------------------------------------------------------------------


-------12-15/21-24~ w/bar-----12~w/bar--12----------------12-14-15-14-
-11-14-------------------------------------15-14-12-14-15-------------
----------------------------------------------------------------------
----------------------------------------------------------------------
----------------------------------------------------------------------
----------------------------------------------------------------------


12-14-12-------12-----------------------------------------------------
---------15-14----15-14-12-15-14-12----14-15-14-12-13-12-------12-----
------------------------------------15-------------------15-14----15--
----------------------------------------------------------------------
----------------------------------------------------------------------
----------------------------------------------------------------------


---------------------12----10-----------------------------------------
------------------------------13-12-13-12-10--------------------------
-14-12-14-12-11------------------------------12-10-10-9---------------
--------------------------------------------------------12-10---------
----------------------------------------------------------------------
----------------------------------------------------------------------

Rhythm to continue lead
----------------0------1-----------5--3p1p0---------------0--1~w/bar--
-----------0--0---0-------3--3---3---------------------0--------------
-----2--2-------------------------------------------------------------
----------------------------------------------------------------------
--0-----------------------------------------0-2-2--3-3----------------
----------------------------------------------------------------------


-5-3p1p0-------------0-----1---7--10~w/bar-------------0--0-----------
------------------------0-------------------------1--1----------------
----------------------------------------------------------------------
----------------------------------------------------------------------
---------0--2-2--3-3-----------------------0--2-2---------------------
----------------------------------------------------------------------

lead continued
14-12-------12--------------------------------------------------------
------15-14----15-14-12-15-14-12----14-15-14-12-13-12-------12--------
---------------------------------15-------------------15-14----15-14--
----------------------------------------------------------------------
----------------------------------------------------------------------
----------------------------------------------------------------------


------------------12--10----------------------------------------------
-------------------------13-12-13-12-10-------------------------------
12-14-12-11-----------------------------12-10-10-9--------------------
---------------------------------------------------12-10--------------
----------------------------------------------------------------------
----------------------------------------------------------------------


---------------------------------8-7-8-10/15-12-12--12-17-12-19-------
-----------------------------10---------------------------------------
--------0h2h4p2----/7~w/bar-------------------------------------------
9-----9---------------------------------------------------------------
----------------------------------------------------------------------
----------------------------------------------------------------------


-12-17-12-15-12/19w/bar---15-19---19--17--17--17--15-13-12-13-12-13-12
----------------------------------------------------------------------
----------------------------------------------------------------------
----------------------------------------------------------------------
----------------------------------------------------------------------
----------------------------------------------------------------------


----------------------------------------------------------------------
-13-12-----12---------------------------------------------------------
--------14----14------------------------------------------------------
-----------------15-14-15-14-12----12---------------------------------
--------------------------------15----15-14-15-14-------------------8-
--------------------------------------------------13-12-13--10-8-10---


----------------------------------------------------------------------
------------------------------------------------10--------------------
--------------------------------------10-10-12-----12-10-9------------
-------9-10-10--9-9~~~~-----------10-----------------------12-10-9-10-
-10-12-------------------------12-------------------------------------
----------------------------------------------------------------------


----------------/12w/bar-----------14-14------------------------------
----------------------------------------------------------------------
----------------------------------------------------------------------
-9~w/bar--------------------------------------------------------------
----------------------------------------------------------------------
----------------------------------------------------------------------


-19p15-15----17-17--15p14---------------------14-15-14-------14-15-14-
----------------------------15/17-17----15-17----------15-17----------
----------------------------------------------------------------------
----------------------------------------------------------------------
----------------------------------------------------------------------
----------------------------------------------------------------------


------14-15-14-------14-15-17-14-15-17--19p15h19p15h19p15h19----------
15-17----------15-17--------------------------------------------------
----------------------------------------------------------------------
----------------------------------------------------------------------
----------------------------------------------------------------------
----------------------------------------------------------------------


-17-15-17-19-17-15-17-15---------15-----------------------------------
-------------------------19---19----19-19~----------------------------
----------------------------------------------------------------------
----------------------------------------------------------------------
----------------------------------------------------------------------
----------------------------------------------------------------------


-------12-14-15-14-12----14-12-------12----------------12-14-15-14-12-
-14-15----------------15-------15-15----15-14-12-14-15----------------
----------------------------------------------------------------------
----------------------------------------------------------------------
----------------------------------------------------------------------
----------------------------------------------------------------------


14-12----12----------------12-14-15-14-14-12-------12-----------------
------15----15-14-12-14-15-------------------15-14----15-14-12-15-14--
----------------------------------------------------------------------
----------------------------------------------------------------------
----------------------------------------------------------------------
----------------------------------------------------------------------


----------------------------------------------------------------------
12----12-14-15-14-12----14-12-------12--------------------------------
---15----------------15-------14-12----15-14-12-15-14-12-12-11~-------
----------------------------------------------------------------------
----------------------------------------------------------------------
----------------------------------------------------------------------


----------------------------------------------------------------------
--------7--5--8--7--7--7--5~w/bar-------------------------------------
-xp6------------------------------------------------------------------
-----------------------------------------/6---------------------------
----------------------------------------------------------------------
----------------------------------------------------------------------


-------------6-3-------3-9-6-------6-9-12h15p12----19-19--19~---------
-8-5-------5-----5-2-5-------8-5-8--------------14--------------------
-----6-3-6------------------------------------------------------------
----------------------------------------------------------------------
----------------------------------------------------------------------
----------------------------------------------------------------------


-15-14-------------15------14-----------------------------------------
-------17-15-14---------------17-15-14--------------------------------
----------------16---------------------16-15-14-----------------------
------------------------------------------------17-16-14--------------
---------------------------------------------------------19-16-14-13--
----------------------------------------------------------------------


-------------------------------------------------12-------------------
----------------------------------------------------------------------
----------------------------------------------------------------------
----------------------12~w/bar----------------------------------------
-14~w/bar--16~w/bar---------------------------------------------------
----------------------------------w/bar 2-----------------------------


-12------12----------------12----------------12-14-15-14-12-----------
------------15-14-12-14-15----15-14-12-14-15----------------15-14-12--
----------------------------------------------------------------------
----------------------------------------------------------------------
----------------------------------------------------------------------
----------------------------------------------------------------------


----------------------------------------------------------------------
----------------------------------------------------------------------
-15-12-11-------------------------------------------------------------
----------14-12-11-----------11~~~w/bar------9w/bar-------------------
-------------------14-13-14-------------------------------------------
----------------------------------------------------------------------

~w/bar------------------------
----------------------------------------------------------------------
----------------------------------------------------------------------
----------------------------------------------------------------------
--9--9---8----------9--9-----8-------9-8-9----11-8-9-11-9-8-12-9-11-12
--------------10------------------10-------10-------------------------
----------------------------------------------------------------------


----------------------------------------------------------------------
----------------------------------------------------------------------
------9-------9-------11----9-11-9----12-9-11-12-11-9-11~w/bar--------
-11-9---11-12---12-11----12--------12---------------------------------
----------------------------------------------------------------------
----------------------------------------------------------------------


-----------------------------------------12-14-15-14-12---------------
-----------------------10-12-11-12-14-15----------------15-14-12-11---
-11---9-------9-11--12------------------------------------------------
--------11-12---------------------------------------------------------
----------------------------------------------------------------------
----------------------------------------------------------------------


----------------------------------------------------------------------
12-14-12-11-12-11----11-----------------------------------------------
------------------14----14-12-11----12-11-------11--------------------
---------------------------------14-------14-12----14-12-11-14-12-11--
----------------------------------------------------------------------
----------------------------------------------------------------------


------------------------12--12--12-0---14~--15-14-12------------------
-----------------------------------------------------15-14-12---------
--------------------------------------------------------------15-15---
-------------ps\------------------------------------------------------
14-13-14--------------------------------------------------------------
----------------------------------------------------------------------


-----------------------------------------------------14-15-14----14---
------------------17p15--14~----17-15-14----14-15-17----------17------
-12-16~-w/bar----------------------------16---------------------------
----------------------------------------------------------------------
----------------------------------------------------------------------
----------------------------------------------------------------------


--------------------15-14---------------------------------------------
-17-15-17-15-14-----------17-15---------------------------------------
----------------16--------------16-15-14------------------------------
-----------------------------------------17-16-14---------------------
--------------------------------------------------17-16-14~-----------
-------------------------------------------------------------0w/bar---

fade out






=======================================================================
h = hammeron                    Judy Letostak
p = pulloff                     Internet letostak@ix.netcom.com (doesn't work)
/\ = slide                      Fidonet 1:202/762 (defunct)
x = ghost note                  MetalNet 282:100/2 (defunct)
t = tap (right hand)            The Music Shop BBS (619)423-4970 24hrs (closed)
~ = vibrato                     * = picked harmonic
bf = bend full                  tr = trill
rb = release bend               p.s. = pick scrape
dive = dive with bar            b = bend / step written over note
% = repeat bar                  + = natural harmonic
========================================================================
The Music Shop BBS (619)423-4970  24hrs
Tons of music files, tab, lyrics, pictures, sound files....LORD, BRE
Falcon's Eye (interplanetary).  Internet Email and USENET. Unsigned/
Indie band support, free of cost ask for more details.

the bbs and the above email doesn't work...it's so old...
but the information about the rest of the stuff is still good...
h is still a hammeron p is still a pulloff

If you've read this far and remember me, you can find the rest
of my lessons and other tabs @ http://gypsy.sytes.net
uh, when my internet connection is up and running that is =]
  development and support by
dmitry ivanov