rock
 
|tablatures   |lyrics   |discussion forums   |more tabs @ XGuitar.com

Yngwie Malmsteen tabs

Dark Ages guitar tab

			
              		 
 		           DARK AGES

                         from  Trilogy 
                   by Yngwie Johann Malmsteen

   

  


Intro

-------------------------------------------------------------------------
-------------------------------------------------------------------------
----------------2-4~-----------5-4-2~------------4-2--------------2------
--------2-2-2-5----------2-2-2-------------2-2-2-----5~-----2-2-2---5-4~-
---2-2---------------2-2---------------2-2--------------2-2--------------
---0-0---------------0-0---------------0-0--------------0-0--------------   X2


In the time when darkness ruled
------------------------------------
------------------------------------
------------------4---h5----4-------
------------------4---------4-------
--2-------------2-2---------2-2-2-2-
--0-0-0-0-0-0-0-0-----------------0-

No one saw the light
-------------------------------
-------------------------------
----------------5p4------------
----------------4--------------
-2---------2--------3-2-----2--
-0-0-0-0-0-0------------5-3-0--


In the cold black emptiness
------------------------------------
------------------------------------
------------------4---h5----4-------
------------------4---------4-------
--2-------------2-2---------2-2-2-2-
--0-0-0-0-0-0-0-0-----------------0-


Victims of the night

--------------------------------------
--------------------------------------
----------------5p4---7-5-3-----------
----------------4-----------7-5-3-----
-2---------2----------------------7-6-
-0-0-0-0-0-0--------------------------


 You can't fight  what you can't see
-------------------------------------
-------------------------------------
-5-----------------------------------
-5---------------------5-------------
-3---------------------5-------------
-----------------------3-------------

To be or not to be      in dark ages
----------------------|------------------------------------------------------------------
----------------------|------------------------------------------------------------------
----------------------|------------------------4~------------5-4-2~--------------4-2-----
---7------------4-----|--------------------------------------------------------------5~--
---7------------2-----|-------------2-2---2-2-------2-2--2-2-----------2-2--2-2----------
---5------------------|-------------0-0---0-0-------0-0--0-0-----------0-0--0-0----------
		      |
    In dark ages
------------------|
------------------|
------------------|
-----------2-5-4~-|
-2-2--2-2---------|
-0-0--0-0---------|x2


Those evil days will still remain
Till someone breaks the chains

Just the strong survive,
You have to try, or you will die

In Dark Ages
In Dark Ages





Solo

-8p5------5--11p8--------8-14p11---------11-17p14----------14-17-
----7---7--------10---10---------13---13----------16----16-------
------8-------------11--------------14---------------14----------
-----------------------------------------------------------------
-----------------------------------------------------------------
-----------------------------------------------------------------

-21fb-21-20-21-20-18-20-18~-s21fb21-
------------------------------------
------------------------------------
------------------------------------
------------------------------------
------------------------------------

--18-17-15-------------------------------------------
-----------18-17-15----------------------------------
--------------------17-15-14-------------------------
-----------------------------17-15-14----------------
--------------------------------------17-15-14h15p14-
-----------------------------------------------------



-7~~~-7h10p7--7h8p7--------7brb--7-8-p7----------7-7*- tone down with vibrato bar
--------------------10-8-7--------------10-8-7--------
-----------------------------------------------9------
------------------------------------------------------
------------------------------------------------------
------------------------------------------------------

--17fb-17-15------------15-17-19p17p15h17p15----15---------------15-17-19p17p15p17p15----15--------
------------19-16-17-19---------------------19----19-17-16--17-19---------------------19----19-17~-
---------------------------------------------------------------------------------------------------
---------------------------------------------------------------------------------------------------
---------------------------------------------------------------------------------------------------
---------------------------------------------------------------------------------------------------

-20-19-17-19-17----17-----------19-17-15-17-15----15----------17-15-14-15-14----14-------
----------------20----20-19-17-----------------19----19-17-16----------------17----17-16-
-----------------------------------------------------------------------------------------
-----------------------------------------------------------------------------------------
-----------------------------------------------------------------------------------------
-----------------------------------------------------------------------------------------

--16fbr16p15----15-16-18-20-21bfb-
-------------18-------------------
----------------------------------
----------------------------------
----------------------------------
----------------------------------

-------------------5h8p5-t12-5h8p12t11-5h8p5t12-5h8p5t11-5h8p5t12-5h8p5t11-
-10~----7h10p7-------------------------------------------------------------
---------------9-8---------------------------------------------------------
---------------------------------------------------------------------------
---------------------------------------------------------------------------
---------------------------------------------------------------------------

-5h8p5t12-5h8p5t14-5h8p5t12-5h8p5t14-5h8p5t12-5h8p5t14-5h8p5t15-5h8p5t14--
--------------------------------------------------------------------------
--------------------------------------------------------------------------
--------------------------------------------------------------------------
--------------------------------------------------------------------------
--------------------------------------------------------------------------

-5h8p5t15-5h895t17-17hb-17-19-20-17-19-17-15-14----------------------15p14-14~-
------------------------------------------------17-15-13-12-13-15-17-----------
-------------------------------------------------------------------------------
-------------------------------------------------------------------------------
-------------------------------------------------------------------------------
-------------------------------------------------------------------------------

-15-13-12-13p12----12~--
----------------15------
------------------------
------------------------
------------------------
------------------------

In dark Ages
In Dark Ages


-19-20-17-20-15-20-14-20-19-20-17-20-15-20-14-20----20-19-17-19-15-19-
-------------------------------------------------17-------------------
----------------------------------------------------------------------
----------------------------------------------------------------------
----------------------------------------------------------------------
----------------------------------------------------------------------

14-19----19----17-15-17----17-----------------------------------------------
-------17----16----------19----19-16----19-16-------16----------------------
-------------------------------------17-------17-14----17-14----------------
-------------------------------------------------------------14-16--13-12~--
----------------------------------------------------------------------------
----------------------------------------------------------------------------

Repeat Fade out


  development and support by
dmitry ivanov