rock
 
|tablatures   |lyrics   |discussion forums   |more tabs @ XGuitar.com

Yngwie Malmsteen tabs

Cantabile guitar tab

         Title : "CANTABILLE"
        Artist : Yngwie Malmsteen
         Album : Magnum Opus
Transcribed by : Razl Simarro  artaburu@euskalnet.net 


-----------------16~-16~----16---18p16-16--18-20-21~-------------13-14-16-14-13-----------
-----------------------------------------------------14-13-14-16----------------16-14-13~-
--18--20p18--18~---------18---------------------------------------------------------------
------------------------------------------------------------------------------------------
------------------------------------------------------------------------------------------
------------------------------------------------------------------------------------------

------------------------------------18---------------16-18~------------------16~-
--19-19-21p19p18-18tr19-16h18p16-16---------16-18-19---------14h16p14p13--16-----
-----------------------------------------18--------------------------------------
---------------------------------------------------------------------------------
---------------------------------------------------------------------------------
---------------------------------------------------------------------------------

---21-20-21-18h21p18---------16-18--15-16h18p16p15h16~---
---------------------21~--16-----------------------------
---------------------------------------------------------
---------------------------------------------------------
---------------------------------------------------------
---------------------------------------------------------


|<----------  X2--------- ....
|
|--16h18p16-16-18-19-18-19~--18-21-19-18-16-14-16-19-18-16-14-12-14---12h14p12-----------
|------------------------------------------------------------------------------16-15-16~-
|----------------------------------------------------------------------------------------
|----------------------------------------------------------------------------------------
|----------------------------------------------------------------------------------------
|----------------------------------------------------------------------------------------


-14h16p14-14~-16-17-16-17~---17-16h17p16p14-16p14h16p14p13-14p13h14p13--------
-----------------------------------------------------------------------16-14~-
------------------------------------------------------------------------------
------------------------------------------------------------------------------
------------------------------------------------------------------------------
------------------------------------------------------------------------------



-16h18p16-16--21b~--------------------16-18-20-21b~---------------------16-18-20-21b~--
-----------------------------16-17-19-------------------------16--17-19----------------
-------------------18-18~--18------------------------18-18~-18-------------------------
---------------------------------------------------------------------------------------
---------------------------------------------------------------------------------------
---------------------------------------------------------------------------------------

                                                      ...----->| 
                                                               |
-----------------16-18-20-21b~-------------------------------  |
--------16-17-19----------------21-18-19---------------------  |
-18-18~-----------------------------------20-18h20p18p17h18~-  |
-------------------------------------------------------------  |
-------------------------------------------------------------  |
-------------------------------------------------------------  |




----12p9---------9-12----16p12------------12--16-------16p12-------------12--16-s21bf~--
-10------10---10--------------14-------14--------------------14------14-----------------
------------9--------------------13------------------------------13---------------------
----------------------------------------------------------------------------------------
----------------------------------------------------------------------------------------
----------------------------------------------------------------------------------------
  development and support by
dmitry ivanov