rock
 
|tablatures   |lyrics   |discussion forums   |more tabs @ XGuitar.com

Yngwie Malmsteen tabs

Brothers bass tab

BROTHERS (Bassline)
                       As recorded by Yngwie J. Malmsteen
                         (From the 1994 Album 7TH SIGN)

Music by Yngwie J. Malmsteen
Transcribed by Matti Akkanen

Gtr I (Eb Ab Db Gb) - 'Bass'

 Intro
  Q=119
 4/4
  Gtr I
  Wx8
|--------|
|--------|
|--------|
|--------|


 1st Theme
  W          H    H      H    E E E E   H    H
|----------|-----------|--------------|-----------|
|----------|-----------|------2-------|-----------|
|----------|-5----3----|------------2-|-0---------|
|-5--------|-----------|-4------0-4---|------3----|


  W          W          H    +Q.   E   Q.   E H
|----------|----------|------------2-|-1----2-4----|
|----------|----------|-2----(2)-----|-------------|
|----------|----------|--------------|-------------|
|-1--------|-2--------|--------------|-------------|


  Q.   E H      H    H      H    E E E E   H    H
|-2-----------|-----------|------------4-|-----------|
|------2------|-----------|----------6---|-7----5----|
|--------0----|-5----3----|--------7-----|-----------|
|-------------|-----------|-4----0-------|-----------|


  W          W          W          H.      Q
|----------|----------|----------|------------||
|-3--------|-4--------|----------|------------||
|----------|----------|----------|------------||
|----------|----------|-0--------|-0----------||


   Chorus
    W          W          W          W
||-----------|----------|----------|------|
||o----------|----------|----------|-3----|
||o-5--------|-2--------|-3--------|------|
||-----------|----------|----------|------|


                        1.
                                                   ~~
  W          W           E  E  E  E  E  E  E  E    W
|----------|----------|-------------------14-13-|-14-----||
|----------|-2--------|----------------14-------|-------o||
|-2--------|----------|-12-11-12-14s15----------|-------o||
|----------|----------|-------------------------|--------||


                                2nd Theme
  2.
             ~       ~
  E E E  E E Q   E   W           H    H      H    H
|------------9--10-|-9--------||-----------|-----------|
|-7-9-7-10-9-------|----------||-----------|-----------|
|------------------|----------||------4----|-5----3----|
|------------------|----------||-5---------|-----------|


  H    H      W          W          W
|-----------|----------|----------|------|
|-----------|----------|----------|-6----|
|------2----|-3--------|-1--------|------|
|-3---------|----------|----------|------|


  ~~
  Q.   E H      W          H    H      H    H
|------5-4----|----------|-----------|-----------|
|-7-----------|-7--------|-----------|-----------|
|-------------|----------|------4----|-5----3----|
|-------------|----------|-5---------|-----------|


  H    H      W           H     H      W
|-----------|----------|-------------|------|
|-----------|----------|-------------|------|
|------2----|-3--------|-13\----1----|------|
|-3---------|----------|-------------|-0----|


                                  Guitar Solo
      ~~~              ~~
   E  Q.   E E  E E    W           H.      Q
|------------9-10-9S|=14--------||---------2--|
|----10----9--------|-----------||------------|
|-12----------------|-----------||-0----------|
|-------------------|-----------||------------|


  +H.      Q    H.      Q    +Q   E  E E E E E   H    E E Q
|-(2)---------|------------|------9-10-9-------|-------------|
|----------2--|---------7--|-(7)---------7-6-9-|-7-----------|
|-------------|-0----------|-------------------|------7------|
|-------------|------------|-------------------|--------8-5--|


  +H     E  E  E  E   H.      Q    +E  E E E E E Q    H     E  E  Q
|-------------16----|------------|------------------|------------14--|
|----------14----14-|------------|------------------|---------14-----|
|--------0----------|-0-------0--|-(0)-7-8-7-5------|-0----12--------|
|-(5)---------------|------------|-------------8-7--|----------------|


   +H      a  Q   E  E   E E  E E E E Q    +W           H    H
|-(14)----14h16--14-13-|---9-------------|------------|-----------|
|----------------------|-----10-9-7------|------------|------7----|
|----------------------|------------7-0--|-(0)--------|-0---------|
|----------------------|-----------------|------------|-----------|


                                     2nd Theme
    ~
  a W          W          W           H    H
|------------|-5--------|-7--------||-----------|
|-7h9--------|----------|----------||-----------|
|------------|----------|----------||------4----|
|------------|----------|----------||-5---------|


  H    H      H    H      W          H.      E E
|-----------|-----------|----------|-------------|
|-----------|-----------|----------|-8-------8-7-|
|-5----3----|------2----|-3--------|-------------|
|-----------|-3---------|----------|-------------|


                                                         1st Theme
  E  E E E  E E E E   E E E E E E Q    E E E E E E E E    W
|---10-9-7----------|----------------|-----------------||------|
|-6--------10-9-7-6-|-7--------------|---0-2-3-2-0-----||------|
|-------------------|---7---------2--|-0-----------3-2-||-0----|
|-------------------|-----8-5-0-4----|-----------------||------|


  H    H      H    Q  E E   H    H      W
|-----------|-------------|-----------|------|
|-----------|------2------|-----------|------|
|-5----3----|-----------2-|-0---------|------|
|-----------|-4-------4---|------3----|-1----|


  W          H.      E E    W          W
|----------|-----------9S|=13--------|------|
|----------|---------9---|-----------|------|
|----------|-7-----------|-----------|------|
|-2--------|-------------|-----------|-5----|


  H    H      H    E E E E   E E E E H      W
|-----------|----------4-5-|--------------|------|
|-----------|--------6-----|-7------------|------|
|-5----3----|------7-------|---7----------|------|
|-----------|-4------------|-----8-5-3----|-1----|


                                    Outro
  W          W          H    H       Wx8          W
|----------|----------|-----------||------------|------*|
|----------|----------|-----------||------------|------*|
|----------|----------|-----------||------------|------*|
|-2--------|-0--------|-0---------||------------|------*|


Duration Legend
---------------
W - whole; H - half; Q - quarter; E - 8th; S - 16th; T - 32nd; X - 64th; a - acciaccatura
+ - note tied to previous; . - note dotted; .. - note double dotted
Uncapitalized letters represent notes that are staccato (1/2 duration)
Irregular groupings are notated above the duration line
Duration letters will always appear directly above the note/fret number it represents the
duration for.  Duration letters with no fret number below them represent rests.  Multi-
bar rests are notated in the form Wxn, where n is the number of bars to rest for.  Low
melody durations appear below the staff

Tablature Legend
----------------
 h   - hammer-on
 p   - pull-off
 b   - bend
 pb  - pre-bend
 r   - bend release (if no number after the r, then release immediately)
 /\  - slide into or out of (from/to "nowhere")
 s   - legato slide
 S   - shift slide
  - natural harmonic
[n]  - artificial harmonic
n(n) - tapped harmonic
 ~   - vibrato
 tr  - trill
 T   - tap
 TP  - trem. picking
 PM  - palm muting
\n/  - tremolo bar dip; n = amount to dip
 \n  - tremolo bar down
 n/  - tremolo bar up
/n\  - tremolo bar inverted dip
 =   - hold bend; also acts as connecting device for hammers/pulls
 <>  - volume swell (louder/softer)
 x   - on rhythm slash represents muted slash
 o   - on rhythm slash represents single note slash

Misc Legend
-----------
 |  - bar
||  - double bar
||o - repeat start
o|| - repeat end
*|  - double bar (ending)
 :  - bar (freetime)
 $  - Segno
 &  - Coda
Tempo markers -  = BPM(8/16=s8/s16), where s8 = swing 8ths, s16 = swing 16ths


***************************************************************************************
* Generated using Power Tab Editor by Brad Larsen - http://powertab.guitarnetwork.org *
***************************************************************************************
  development and support by
dmitry ivanov