rock
 
|tablatures   |lyrics   |discussion forums   |more tabs @ XGuitar.com

Yngwie Malmsteen tabs

Braveheart guitar tab

         Title : "Braveheart"
        Artist : Yngwie Malmsteen
         Album : Facing the Animal
Transcribed by : Michal Gapys


Intro

e----------------------------------------------------------------------------------
b----------------------------------------------------------------------------------
g----------------------------------------------------------------------------------
d----------------------------------------------12-------12-14----12-14-15-12-14-15-
a----------12-------12-13----12-13-15-12-13-15----13-15-------15-------------------
E-12-13-15----13-15-------15-------------------------------------------------------

e----------------------------------------------------------------------------------
b----------------------------------------------------------------------------------
g----------12-------12-14-15-14-12----12-------------------------------------------
d-12-14-15----14-15----------------15----15-14-12-14-12-------------14-----12---14-
a-------------------------------------------------------15-13-------14-----12---14-
E-------------------------------------------------------------15-13-12-----10---12-

Verse

Something Like This

e--------------------------------------
b------------------------------11------
g-7--9-9-9-9--7--7--9-9-9-9-9--10---10-
d-7--9-9-9-9--7--7--9-9-9-9-9---8---10-
a-5--7-7-7-7--5--5--7-7-7-7-7--------8-
E--------------------------------------

Chorus

e------------------------------------------------------------------------------------
b------------------------------------------------------------------------------------
g-----------7-9-10-9----------7------------------7-9-10-9-7----7---------------------
d-7--7-9-10------------7-9-10---10-9-10---7-9-10------------10---10-9-10-9-7---------
a----------------------------------------------------------------------------8-7-----
E--------------------------------------------------------------------------------8-5-


  I              want             be        afraid!!=20
e-----------------------------------------------------------------------
b-----------------------------------------------------------------------
g-----------------------------------------------------------------------
d-9--9--9-9--9--9--9-9--9--9--9-9--9--9--9-9--9--9--9-9--9--9--7----9---
a-7--7--7-7--7--7--7-7--7--7--7-7--7--7--7-7--7--7--7-7--7--7--5----7---
E-----------------------------------------------------------------------

e-----------------------------------------------------------------------
b-----------------------------------------------------------------------
g-----------------------------------------------------------------------
d-9--9--9-9--9--9--9-9--9--9--9-9--9--9--9-9--9--9--9-9--9--9--7----10--
a-7--7--7-7--7--7--7-7--7--7--7-7--7--7--7-7--7--7--7-7--7--7--5-----8--
E-----------------------------------------------------------------------



End of chorus in D

e------------------------------------------------------------
b------------------------------------------------------------
g----------12-14-15-14-12----12------------------------------
d-12-14-15----------------15----15-14-15-14-12-14-12---------
a----------------------------------------------------15-12---
E------------------------------------------------------------




Guitar With Harpsichord

e---------------------------------------------------
b-0-0-0-5-0-0-7-0-0-8-7-5-7-0-0-0-0-0-0-2-3-5-3-2-3-
g---------------------------------------------------


e---------------------------------------------------
b-0-0-0-5-0-0-7-0-0-8-7-5-7-0-0-0-0-0-0-3-2-0-------
g---------------------------------------------2-----


e-0-0-0-5-0-0-7-0-0-8-7-5-7-0-0-0-0-0-0-2-3-5-3-2-3-
b---------------------------------------------------
g---------------------------------------------------


e-0-0-0-5-0-0-7-0-0-8-7-5-7-0-0-0-0-0-0-5-3-2-------
b---------------------------------------------3-----
g---------------------------------------------------
  development and support by
dmitry ivanov