rock
 
|tablatures   |lyrics   |discussion forums   |more tabs @ XGuitar.com

Yngwie Malmsteen tabs

Black Star bass tab

Date: Thu, 13 Nov 1997 21:23:28 -0600 (CST)
From: letostak@ix.netcom.com
To: guitar@olga.net
Subject: BTAB: Yngwie Malmsteen - Black Star

Yngwie Malmsteen - Black Star
from Rising Force
tune down 1/2 step



|----------|------------|--------------------------------------|-------|
|----------|------------|--------------------------------------|-------|
|----------|------------|--------------------------------------|--%----|
|----------|------------|---0----0--0--12\0---0--0--12\0--0--0-|-------|
                                                                        
                                                                        
|--------------------------------------|-------|------|------|-----|---|
|--------------------------------------|-------|------|------|-----|---|
|--------------------------------------|--%----|---%--|---%--|--%--|-%-|
|---0----0--0--12\0---0--0--12\0--0--0-|-------|------|------|-----|---|
                                                                        
                                                                        
|--------------------------------------|----------|---------|----------|
|--------------------------------------|----------|---------|----------|
|--------------------------------------|------%---|--%------|---%------|
|---0----0--0--12\0---0--0--12\0--0--0-|----------|---------|----------|
                                                                        
                                                                        
|--------------------------------------|----------|---------|----------|
|--------------------------------------|----------|---------|----------|
|--------------------------------------|------%---|--%------|---%------|
|---0----0--0--12\0---0--0--12\0--0--0-|----------|---------|----------|
                                                                        
                                                                        
||-------------------------------------|----------|---------|----------|
||o------------------------------------|----------|---------|----------|
||o------------------------------------|------%---|--%------|---%------|
||--0----0--0--12\0---0--0--12\0--0--0-|----------|---------|----------|
                                                                        
                                                                        
|--------------------------------------|-------------------------------|
|--------------------------------------|-------------------------------|
|--------------------------------------|------%------------------------|
|---0----0--0--12\0---0--0--12p0--0--0-|-------------------------------|
                                                                        
                                                                        
|--------------------------------------|------------|-------------------
|--------------------------------------|------------|-------------------
|--------------------------------------|------%-----|-------7-6---------
|---0----0--0--12\0---0--0--12p0--0--0-|------------|-5-7-8-----8-7-5-8-
                                                                        
                                                                        
----------------|-----------------------------------|-------------------
------7---------|-----------------------------------|-------------------
----7---7-6-----|-------7-6---------------7h9-7-6---|-------7-6---------
--7---------8-7-|-5-7-8-----8-7-5-8-7-5-8---------8-|-5-7-8-----7h8-7-5-


--------------------|-------------------5-------4------------||
---------------10-9-|---------------------5-7------0-2-0----o||
------10-9-7-6------|-------7-6---------------7-------------o||
--8-7---------------|-5-7-8-----7h8-7-5----------------------||
                                                                        

Guitar Solo
                                                                        
||-----------------------------------------|-----------|---------|----||
||o----------------------------------------|-----------|---------|---o||
||o----------------------------------------|----%------|---%-----|-%-o||
||----0--0--0--12\0-0--0--0--0-12p0--0--0--|-----------|---------|----||
                                                                        
                                                                        
|---------------------------------------------|-------------------------
|------------7--------------------------------|------------3------------
|--0---0--0------0--0--0----0--0--5--2--0-----|-------------------------
|------------------------------------------3--|-1----1--1-----1--1--1---
                                                                        
                                                                        
--------------------|--------------------------------------------------|
--------3--0--------|-------------7------------------------------------|
--------------2-----|--0----0--0------------0----0--0--5--0--0---------|
--1--1-----------3--|-----------------5--0----------------------3------|
                                                                        
                                                                        
|-----------------------------------|-----------------------------------|
|------------3----------3-----------|-----------------------------------|
|-----------------------------------|-------7-6-----------9-7-7-5-------|
|-1----1--1-------1--1-----1--1--1--|-5-7-8-----8-7-5-8-7---------8-7---|
                                                                        
                                                                        
|-----------------------------------|-----------------------------------
|-----------------------------------|--------------------------------10-
|-------7-6---------------7h9-7-5---|-------7-6-------------10-9-7-6----
|-5-7-8-----8-7-5-8-7-5-8---------8-|-5-7-8-----7h8-7-5-8-7-------------
                                                                        
                                                                        
------|--------------------5-4-7-------------|
--9---|--------------------------------------|
------|-------7-6-----------------7-5--------|
------|-5-7-8-----7h8-7-5--------------8-7-5-|
                                                                        
                                                                        
|--------------------------------|------------------|------------------|
|--------------------------------|------------------|------------------|
|--------------------------------|---------%--------|--------%---------|
|-0--0-0-12\0-0-0--0-0-12p0-0-0--|------------------|------------------|
                                                                        
                                                                        
|------------------------------------|----------------------------------|
|------------------------7-----------|----------------------------------|
|---------------------------9--7-----|----------------------------------|
|-0--0-0-12\0-0-0--0--0-----------7--|-0--0--0-12\0--0-0-0--0-0-12p0-0-0|


|-------------------------------|--------------------------|------------
|-------------------------------|--------------------------|------------
|----------------------------2--|--------------------------|------------
|-0--0-0-12\0-0-0--0-0-2-3-5----|-0-0-0-12\0-0-0-12p0-0-0--|-0--0-0-12\0
                                                                        
                                                                        
---------------------|---------------------------------|---------------|
---------------------|---------------------------------|---------------|
------------7-5------|---------------------------------|-------%-------|
--0-0--0-0------7-0--|-0--0-0-12\0--0-0--0-0-12p0--0-0-|---------------|
                                                                        
                                                                        
|--------------------------------|-------------------------------------|
|--------------------------------|-------------------------------------|
|--------------------------------|---------------------9-8-7-----------|
|-0--0-0-12\0-0-0--0-0-12p0-0-0--|-0--0-012\0-0-0--0-0--------7--------|
                                                                        
                                                                        
|--------------------------------|--------------------------------|
|--------------------------------|--------------------------------|
|--------------------------------|----------------------------6---|
|-0--0-0-12\0-0-0--0-0-12p0-0-0--|-0--0-0-12\0-0-0--2-3-5-7-8---7-|
                                                                        
                                                                        
|--------------------------------|--------------------------------|
|--------------------------------|----------------------2-1-5-4---|
|--------------------------------|------------------3-2---------2-|
|-0--0-0-12\0-0-0--0-0-12p0-0-0--|-0--0-0-12\0-0-0----------------|
                                                                        
                                                                        
|--------------------------------|--------------------------------|
|--------------------------------|-----------------------2-5-4-2--|
|--------------------------------|------------------3--2----------|
|-0--0-0-12\0-0-0--0-0-12p0-0-0--|-0--0-0-12\0-0-0----------------|
                                                                        
                                                                        
|----------------------------------------------|
|--/14~----------------------------------------| fade out
|----------14--10/11---------------------------|
|---------------------0----0--0--20p0--0--0----|
                                                                        
                                                            
=======================================================================
h = hammeron                    Judy Letostak                         
p = pulloff                     Internet letostak@ix.netcom.com
/\ = slide
x = ghost note
t = tap (right hand)
~ = vibrato                     * = picked harmonic
bf = bend full                  tr = trill
rb = release bend               p.s. = pick scrape
dive = dive with bar            b = bend / step written over note
========================================================================
  development and support by
dmitry ivanov