rock
 
|tablatures   |lyrics   |discussion forums   |more tabs @ XGuitar.com

Yngwie Malmsteen tabs

Baroque Roll guitar tab

BAROQUE & ROLL
                       As recorded by Yngwie J. Malmsteen
                          (From the 2002 Album ATTACK)

Music by Yngwie J. Malmsteen
Arranged by Yngwie J. Malmsteen
Transcribed by Jose Alvarez

Gtr I (Eb Ab Db Gb Bb Eb) - 'Guitar I'
Gtr II (Eb Ab Db Gb Bb Eb) - 'Guitar II'
Gtr III (Eb Ab Db Gb Bb Eb) - 'Strings'

 Intro Theme
  Q=190
  N.C.               E                   Am
 4/4
  Gtr I
           |--3--|             |--3--|             |--3--|
  H.       S  S  S    H.       S  S  S    H.       S  S  S
|------------------|-------------------|-------------------|
|---------17-15-13S|=12-------12-13-15-|-13-------17-18-20S|
|------------------|-------------------|-------------------|
|------------------|-------------------|-------------------|
|------------------|-------------------|-------------------|
|------------------|-------------------|-------------------|
|
| Gtr II
|          |--3--|             |--3--|             |--3--|
| H.       S  S  S    H.       S  S  S    H.       S  S  S
|------------------|-------------------|-------------------|
|------------------|-------------------|-------------------|
|---------17-16-14S|=13-------13-14-16-|-14-------17-19-21S|
|------------------|-------------------|-------------------|
|------------------|-------------------|-------------------|
|------------------|-------------------|-------------------|
|
| Gtr III
| W                   W                   W
|------------------|-------------------|-------------------|
|------------------|--9----------------|-10----------------|
|------------------|--9----------------|--9----------------|
|------------------|--9----------------|-10----------------|
|------------------|--7----------------|--7----------------|
|------------------|-------------------|-------------------|


  Dm                  C
            |--3--|             |--3--|
   H.       S  S  S    H.       S  S  S
|-------------------|-------------------|
|-22-------18-20-22-|-20-------17-18-20-|
|-------------------|-------------------|
|-------------------|-------------------|
|-------------------|-------------------|
|-------------------|-------------------|
|
|           |--3--|             |--3--|
|  H.       S  S  S    H.       S  S  S
|-------------------|-------------------|
|-------------------|-------------------|
|-22-------19-21-22-|-21-------17-19-21-|
|-------------------|-------------------|
|-------------------|-------------------|
|-------------------|-------------------|
|
|  W                   W
|-------------------|-------------------|
|--6----------------|--5----------------|
|--7----------------|--5----------------|
|--7----------------|--5----------------|
|--5----------------|--3----------------|
|-------------------|-------------------|


  D7                    Am
               |--3--|             |--3--|
   H.          S  S  S    H.       S  S  S
|----------------------|-------------------|
|-18tr20------15-17-18-|-17-------13-15-17-|
|----------------------|-------------------|
|----------------------|-------------------|
|----------------------|-------------------|
|----------------------|-------------------|
|
|              |--3--|             |--3--|
|  H.          S  S  S    H.       S  S  S
|----------------------|-------------------|
|----------------------|-------------------|
|-19tr21------16-17-19-|-17-------14-16-17-|
|----------------------|-------------------|
|----------------------|-------------------|
|----------------------|-------------------|
|
|  W                      W
|----------------------|-------------------|
|--6-------------------|--5----------------|
|--4-------------------|--5----------------|
|--6-------------------|--7----------------|
|--5-------------------|--7----------------|
|----------------------|-------------------|


  E7                  Am
            |--3--|             |--3--|
   H.       S  S  S    H.       S  S  S
|-------------------|--------------------|
|-15-------12-13-15-|-13-------17-15-13S=|
|-------------------|--------------------|
|-------------------|--------------------|
|-------------------|--------------------|
|-------------------|--------------------|
|
|           |--3--|             |--3--|
|  H.       S  S  S    H.       S  S  S
|-------------------|--------------------|
|-------------------|--------------------|
|-16-------13-14-16-|-14-------17-16-14S=|
|-------------------|--------------------|
|-------------------|--------------------|
|-------------------|--------------------|
|
|  W                   W
|-------------------|--------------------|
|--5----------------|--5-----------------|
|--4----------------|--5-----------------|
|--6----------------|--7-----------------|
|--7----------------|--7-----------------|
|-------------------|--------------------|


  E                   Am                Dm
            |--3--|             |--3--|
   H.       S  S  S    H.       S  S  S
|-------------------|-------------------|
|-12-------12-13-15-|-13-------17-18-20S|
|-------------------|-------------------|
|-------------------|-------------------|
|-------------------|-------------------|
|-------------------|-------------------|
|
|           |--3--|             |--3--|
|  H.       S  S  S    H.       S  S  S
|-------------------|-------------------|
|-------------------|-------------------|
|-13-------13-14-16-|-14-------17-19-21S|
|-------------------|-------------------|
|-------------------|-------------------|
|-------------------|-------------------|
|
|  W                   W
|-------------------|-------------------|
|--9----------------|-10----------------|
|--9----------------|--9----------------|
|--9----------------|-10----------------|
|--7----------------|--7----------------|
|-------------------|-------------------|


                      C
            |--3--|             |--3--|
   H.       S  S  S    H.       S  S  S
|-------------------|-------------------|
|-22-------18-20-22-|-20-------17-18-20-|
|-------------------|-------------------|
|-------------------|-------------------|
|-------------------|-------------------|
|-------------------|-------------------|
|
|           |--3--|             |--3--|
|  H.       S  S  S    H.       S  S  S
|-------------------|-------------------|
|-------------------|-------------------|
|-22-------19-21-22-|-21-------17-19-21-|
|-------------------|-------------------|
|-------------------|-------------------|
|-------------------|-------------------|
|
|  W                   W
|-------------------|-------------------|
|--6----------------|--5----------------|
|--7----------------|--5----------------|
|--7----------------|--5----------------|
|--5----------------|--3----------------|
|-------------------|-------------------|


  D7                    Am                  E/G#                Am
               |--3--|             |--3--|             |--3--|
   H.          S  S  S    H.       S  S  S    H.       S  S  S    W
|----------------------|-------------------|-------------------|-----------|
|-18tr20------15-17-18-|-17-------13-15-17-|-15-------12-13-15-|-13--------|
|----------------------|-------------------|-------------------|-----------|
|----------------------|-------------------|-------------------|-----------|
|----------------------|-------------------|-------------------|-----------|
|----------------------|-------------------|-------------------|-----------|
|
|              |--3--|             |--3--|             |--3--|
|  H.          S  S  S    H.       S  S  S    H.       S  S  S    W
|----------------------|-------------------|-------------------|-----------|
|----------------------|-------------------|-------------------|-----------|
|-19tr21------16-17-19-|-17-------14-16-17-|-16-------13-14-16-|-14tr16----|
|----------------------|-------------------|-------------------|-----------|
|----------------------|-------------------|-------------------|-----------|
|----------------------|-------------------|-------------------|-----------|
|
|  W                      W                   W                   W
|----------------------|-------------------|-------------------|-----------|
|--6-------------------|--5----------------|--9----------------|-10--------|
|--4-------------------|--5----------------|--9----------------|--9--------|
|--6-------------------|--7----------------|--9----------------|-10--------|
|--5-------------------|--7----------------|--7----------------|--7--------|
|----------------------|-------------------|-------------------|-----------|


  E
  S S S S S  S S S  S S S  S  S S  S  S
|-7-4-5-7S8--5-7-8S10-7-8-10S12-8-10-12S|
|---------------------------------------|
|---------------------------------------|
|---------------------------------------|
|---------------------------------------|
|---------------------------------------|
|
| S S S S S  S S S  S S S  S  S S  S  S
|-7-4-5-7S8--5-7-8S10-7-8-10S12-8-10-12S|
|---------------------------------------|
|---------------------------------------|
|---------------------------------------|
|---------------------------------------|
|---------------------------------------|
|
| Q       H.
|---------------------------------------|
|-9-------------------------------------|
|-9-------------------------------------|
|-9-------------------------------------|
|-7-------------------------------------|
|---------------------------------------|


   S  S  S  S  S   S  S  S  S  S  S  S  S  S  S  S
|-14-10-12-14S16--12-14-16S17-14-16-17S19-16-17-19S=|
|---------------------------------------------------|
|---------------------------------------------------|
|---------------------------------------------------|
|---------------------------------------------------|
|---------------------------------------------------|
|
|  S  S  S  S  S   S  S  S  S  S  S  S  S  S  S  S
|-14-10-12-14S16--12-14-16S17-14-16-17S19-16-17-19S=|
|---------------------------------------------------|
|---------------------------------------------------|
|---------------------------------------------------|
|---------------------------------------------------|
|---------------------------------------------------|
|
|  Q           H.
|---------------------------------------------------|
|--9------------------------------------------------|
|--9------------------------------------------------|
|--9------------------------------------------------|
|--7------------------------------------------------|
|---------------------------------------------------|


   S  S  S  S  S   S  S  S  S  S  S  S  S  S  S  S
|-20-19-17-----------------------------------------|
|----------18-17--15-------------------------------|
|--------------------17-16-14----------------------|
|-----------------------------15-14-12-------------|
|--------------------------------------15-14-12S11S|
|--------------------------------------------------|
|
|  S  S  S  S  S   S  S  S  S  S  S  S  S  S  S  S
|-20-19-17-----------------------------------------|
|----------18-17--15-------------------------------|
|--------------------17-16-14----------------------|
|-----------------------------15-14-12-------------|
|--------------------------------------15-14-12S11S|
|--------------------------------------------------|
|
|  Q           H.
|--------------------------------------------------|
|--9-----------------------------------------------|
|--9-----------------------------------------------|
|--9-----------------------------------------------|
|--7-----------------------------------------------|
|--------------------------------------------------|


  Am
                        |--3--|
   E  X  X  T  T  T  E  T  T  T  E  Q.
|----------------12-17-17-12--------------||
|-------------13-------------13-----------||
|----------14-------------------14--------||
|-------14--------------------------------||
|-12-15----------------------------12-----||
|-----------------------------------------||
|
|                       |--3--|
|  E  X  X  T  T  T  E  T  T  T  E  Q.
|----------------12-17-17-12--------------||
|-------------13-------------13-----------||
|----------14-------------------14--------||
|-------14--------------------------------||
|-12-15----------------------------12-----||
|-----------------------------------------||
|
|  h                             H
|-----------------------------------------||
|-10--------------------------------------||
|--9--------------------------------------||
|-10--------------------------------------||
|--7--------------------------------------||
|-----------------------------------------||


 Theme I
  Am                E7/B               Am/C             E/G#
   |--3--|  |--3--| |--3--|  |--3--|    |--3--|  |-3--| |--3--|  |-3--|
   S  S  S  S  S  S S  S  S  S  S  S    S  S  S  S S  S S  S  S  S S  S
|----------10-12-13---13-12-10-------|----12-10-12-8-12-7-12----12---12-|
|-10-12-13----------9----------13-12-|-10--------------------10----9----|
|------------------------------------|----------------------------------|
|------------------------------------|----------------------------------|
|------------------------------------|----------------------------------|
|------------------------------------|----------------------------------|
|
|  |--3--|  |--3--| |--3--|  |--3--|    |--3--|  |-3--| |--3--|  |-3--|
|  S  S  S  S  S  S S  S  S  S  S  S    S  S  S  S S  S S  S  S  S S  S
|----------10-12-13---13-12-10-------|----12-10-12-8-12-7-12----12---12-|
|-10-12-13----------9----------13-12-|-10--------------------10----9----|
|------------------------------------|----------------------------------|
|------------------------------------|----------------------------------|
|------------------------------------|----------------------------------|
|------------------------------------|----------------------------------|
|
|  H                H                   H               H
|--5----------------4----------------|--5---------------4---------------|
|--5----------------5----------------|--5---------------5---------------|
|--5----------------4----------------|--5---------------4---------------|
|--7----------------6----------------|--7---------------6---------------|
|------------------------------------|----------------------------------|
|------------------------------------|----------------------------------|


  Am                E7/B               Am/C              A/C#
   |--3--|  |--3--| |--3--|  |--3--|    |--3--|  |--3--|  |--3--|  |--3--|
   S  S  S  S  S  S S  S  S  S  S  S    S  S  S  S  S  S  S  S  S  S  S  S
|----------10-12-13---13-12-10-------|----17-15-13----------------13-15-17----|
|-10-12-13----------9----------13-12-|-10----------17-15-14-15-17-------------|
|------------------------------------|----------------------------------------|
|------------------------------------|----------------------------------------|
|------------------------------------|----------------------------------------|
|------------------------------------|----------------------------------------|
|
|  |--3--|  |--3--| |--3--|  |--3--|    |--3--|  |--3--|  |--3--|  |--3--|
|  S  S  S  S  S  S S  S  S  S  S  S    S  S  S  S  S  S  S  S  S  S  S  S
|----------10-12-13---13-12-10-------|----17-15-13----------------13-15-17----|
|-10-12-13----------9----------13-12-|-10----------17-15-14-15-17-------------|
|------------------------------------|----------------------------------------|
|------------------------------------|----------------------------------------|
|------------------------------------|----------------------------------------|
|------------------------------------|----------------------------------------|
|
|  H                H                   H                 H
|--5----------------4----------------|--5-----------------5-------------------|
|--5----------------5----------------|--5-----------------5-------------------|
|--5----------------4----------------|--5-----------------6-------------------|
|--7----------------6----------------|--7-----------------7-------------------|
|------------------------------------|----------------------------------------|
|------------------------------------|----------------------------------------|


  Dm                A7                  Dm/F              A/C#
   |--3--|  |--3--|  |--3--|  |--3--|    |--3--|  |--3--|  |--3--|  |--3--|
   S  S  S  S  S  S  S  S  S  S  S  S    S  S  S  S  S  S  S  S  S  S  S  S
|----------15-17-18----18-17-15-------|----17-15-17-13-17-12-17----17----17-|
|-15-17-18----------14----------18-17-|-15----------------------15----14----|
|-------------------------------------|-------------------------------------|
|-------------------------------------|-------------------------------------|
|-------------------------------------|-------------------------------------|
|-------------------------------------|-------------------------------------|
|
|  |--3--|  |--3--|  |--3--|  |--3--|    |--3--|  |--3--|  |--3--|  |--3--|
|  S  S  S  S  S  S  S  S  S  S  S  S    S  S  S  S  S  S  S  S  S  S  S  S
|----------15-17-18----18-17-15-------|----17-15-17-13-17-12-17----17----17-|
|-15-17-18----------14----------18-17-|-15----------------------15----14----|
|-------------------------------------|-------------------------------------|
|-------------------------------------|-------------------------------------|
|-------------------------------------|-------------------------------------|
|-------------------------------------|-------------------------------------|
|
|  H                 H                   H                 H
|--5-----------------5----------------|--5-----------------5----------------|
|--6-----------------5----------------|--6-----------------5----------------|
|--7-----------------6----------------|--7-----------------6----------------|
|--7-----------------7----------------|--7-----------------5----------------|
|-------------------------------------|-------------------------------------|
|-------------------------------------|-------------------------------------|


  Dm                A7                  Dm
   |--3--|  |--3--|  |--3--|  |--3--|
   S  S  S  S  S  S  S  S  S  S  S  S    Q.       E  H
|----------15-17-18----18-17-15-------|-------------------|
|-15-17-18----------14----------18-17-|-15tr17---14-15----|
|-------------------------------------|-------------------|
|-------------------------------------|-------------------|
|-------------------------------------|-------------------|
|-------------------------------------|-------------------|
|
|  |--3--|  |--3--|  |--3--|  |--3--|
|  S  S  S  S  S  S  S  S  S  S  S  S    Q.       E  H
|----------15-17-18----18-17-15-------|-------------------|
|-15-17-18----------14----------18-17-|-15tr17---14-15----|
|-------------------------------------|-------------------|
|-------------------------------------|-------------------|
|-------------------------------------|-------------------|
|-------------------------------------|-------------------|
|
|  H                 H                   W
|--5-----------------5----------------|--5----------------|
|--6-----------------5----------------|--6----------------|
|--7-----------------6----------------|--7----------------|
|--7-----------------7----------------|--7----------------|
|-------------------------------------|-------------------|
|-------------------------------------|-------------------|


  E7add2                                E7add2/G#
   |--3--|  |--3--|  |--3--|  |--3--|    |-3--|  |-3-| |-3-|
   S  S  S  S  S  S  S  S  S  S  S  S    S  S S  S S S S S S Q
|-16-13----------13-13-10----------10-|-10--7--------7-7-4------|
|-------15----15----------12----12----|-------9----9-------6----|
|----------16----------------13-------|---------10-----------7--|
|-------------------------------------|-------------------------|
|-------------------------------------|-------------------------|
|-------------------------------------|-------------------------|
|
|  |--3--|  |--3--|  |--3--|  |--3--|    |-3--|  |-3-| |-3-|
|  S  S  S  S  S  S  S  S  S  S  S  S    S  S S  S S S S S S Q
|-16-13----------13-13-10----------10-|-10--7--------7-7-4------|
|-------15----15----------12----12----|-------9----9-------6----|
|----------16----------------13-------|---------10-----------7--|
|-------------------------------------|-------------------------|
|-------------------------------------|-------------------------|
|-------------------------------------|-------------------------|
|
|  W                                    +W
|--4----------------------------------|-(4)---------------------|
|--6----------------------------------|-(6)---------------------|
|--4----------------------------------|-(4)---------------------|
|--6----------------------------------|-(6)---------------------|
|-------------------------------------|-------------------------|
|-------------------------------------|-------------------------|


  Am                E7/B               Am/C             E/G#
   |--3--|  |--3--| |--3--|  |--3--|    |--3--|  |-3--| |--3--|  |-3--|
   S  S  S  S  S  S S  S  S  S  S  S    S  S  S  S S  S S  S  S  S S  S
|----------10-12-13---13-12-10-------|----12-10-12-8-12-7-12----12---12-|
|-10-12-13----------9----------13-12-|-10--------------------10----9----|
|------------------------------------|----------------------------------|
|------------------------------------|----------------------------------|
|------------------------------------|----------------------------------|
|------------------------------------|----------------------------------|
|
|  |--3--|  |--3--| |--3--|  |--3--|    |--3--|  |-3--| |--3--|  |-3--|
|  S  S  S  S  S  S S  S  S  S  S  S    S  S  S  S S  S S  S  S  S S  S
|----------10-12-13---13-12-10-------|----12-10-12-8-12-7-12----12---12-|
|-10-12-13----------9----------13-12-|-10--------------------10----9----|
|------------------------------------|----------------------------------|
|------------------------------------|----------------------------------|
|------------------------------------|----------------------------------|
|------------------------------------|----------------------------------|
|
|  H                H                   H               H
|--5----------------4----------------|--5---------------4---------------|
|--5----------------5----------------|--5---------------5---------------|
|--5----------------4----------------|--5---------------4---------------|
|--7----------------6----------------|--7---------------6---------------|
|------------------------------------|----------------------------------|
|------------------------------------|----------------------------------|


  Am                E7/B               Am/C              A/C#
   |--3--|  |--3--| |--3--|  |--3--|    |--3--|  |--3--|  |--3--|  |--3--|
   S  S  S  S  S  S S  S  S  S  S  S    S  S  S  S  S  S  S  S  S  S  S  S
|----------10-12-13---13-12-10-------|----17-15-13----------------13-15-17----|
|-10-12-13----------9----------13-12-|-10----------17-15-14-15-17-------------|
|------------------------------------|----------------------------------------|
|------------------------------------|----------------------------------------|
|------------------------------------|----------------------------------------|
|------------------------------------|----------------------------------------|
|
|  |--3--|  |--3--| |--3--|  |--3--|    |--3--|  |--3--|  |--3--|  |--3--|
|  S  S  S  S  S  S S  S  S  S  S  S    S  S  S  S  S  S  S  S  S  S  S  S
|----------10-12-13---13-12-10-------|----17-15-13----------------13-15-17----|
|-10-12-13----------9----------13-12-|-10----------17-15-14-15-17-------------|
|------------------------------------|----------------------------------------|
|------------------------------------|----------------------------------------|
|------------------------------------|----------------------------------------|
|------------------------------------|----------------------------------------|
|
|  H                H                   H                 H
|--5----------------4----------------|--5-----------------5-------------------|
|--5----------------5----------------|--5-----------------5-------------------|
|--5----------------4----------------|--5-----------------6-------------------|
|--7----------------6----------------|--7-----------------7-------------------|
|------------------------------------|----------------------------------------|
|------------------------------------|----------------------------------------|


  Dm                A7/E                Dm/F              A/C#
   |--3--|  |--3--|  |--3--|  |--3--|    |--3--|  |--3--|  |--3--|  |--3--|
   S  S  S  S  S  S  S  S  S  S  S  S    S  S  S  S  S  S  S  S  S  S  S  S
|----------15-17-18----18-17-15-------|----17-15-17-13-17-12-17----17----17-|
|-15-17-18----------14----------18-17-|-15----------------------15----14----|
|-------------------------------------|-------------------------------------|
|-------------------------------------|-------------------------------------|
|-------------------------------------|-------------------------------------|
|-------------------------------------|-------------------------------------|
|
|  |--3--|  |--3--|  |--3--|  |--3--|    |--3--|  |--3--|  |--3--|  |--3--|
|  S  S  S  S  S  S  S  S  S  S  S  S    S  S  S  S  S  S  S  S  S  S  S  S
|----------15-17-18----18-17-15-------|----17-15-17-13-17-12-17----17----17-|
|-15-17-18----------14----------18-17-|-15----------------------15----14----|
|-------------------------------------|-------------------------------------|
|-------------------------------------|-------------------------------------|
|-------------------------------------|-------------------------------------|
|-------------------------------------|-------------------------------------|
|
|  H                 H                   H                 H
|--5-----------------5----------------|--5-----------------5----------------|
|--6-----------------5----------------|--6-----------------5----------------|
|--7-----------------6----------------|--7-----------------6----------------|
|--7-----------------7----------------|--7-----------------5----------------|
|-------------------------------------|-------------------------------------|
|-------------------------------------|-------------------------------------|


  Dm                A7/E                Dm
   |--3--|  |--3--|  |--3--|  |--3--|
   S  S  S  S  S  S  S  S  S  S  S  S    Q.       E  H
|----------15-17-18----18-17-15-------|-------------------|
|-15-17-18----------14----------18-17-|-15tr17---14-15----|
|-------------------------------------|-------------------|
|-------------------------------------|-------------------|
|-------------------------------------|-------------------|
|-------------------------------------|-------------------|
|
|  |--3--|  |--3--|  |--3--|  |--3--|
|  S  S  S  S  S  S  S  S  S  S  S  S    Q.       E  H
|----------15-17-18----18-17-15-------|-------------------|
|-15-17-18----------14----------18-17-|-15tr17---14-15----|
|-------------------------------------|-------------------|
|-------------------------------------|-------------------|
|-------------------------------------|-------------------|
|-------------------------------------|-------------------|
|
|  H                 H                   W
|--5-----------------5----------------|--5----------------|
|--6-----------------5----------------|--6----------------|
|--7-----------------6----------------|--7----------------|
|--7-----------------7----------------|--7----------------|
|-------------------------------------|-------------------|
|-------------------------------------|-------------------|


  E7add2            E7add2/G#           E7add2/B           E7add2
   |--3--|  |--3--|  |--3--|  |--3--|    |--3---|  |--3--|
   S  S  S  S  S  S  S  S  S  S  S  S    S   S  S  S  S  S  H
|-16-13----------13S19-16----------16-|-16--13----------13-13----|
|-------15----15----------18----18----|--------15----15----------|
|----------16----------------19-------|-----------16-------------|
|-------------------------------------|--------------------------|
|-------------------------------------|--------------------------|
|-------------------------------------|--------------------------|
|
|  |--3--|  |--3--|  |--3--|  |--3--|    |--3---|  |--3--|
|  S  S  S  S  S  S  S  S  S  S  S  S    S   S  S  S  S  S  H
|-16-13----------13S19-16----------16-|-16--13----------13-13----|
|-------15----15----------18----18----|--------15----15----------|
|----------16----------------19-------|-----------16-------------|
|-------------------------------------|--------------------------|
|-------------------------------------|--------------------------|
|-------------------------------------|--------------------------|
|
|  W                                    +W
|--4----------------------------------|-(4)----------------------|
|--6----------------------------------|-(6)----------------------|
|--4----------------------------------|-(4)----------------------|
|--6----------------------------------|-(6)----------------------|
|-------------------------------------|--------------------------|
|-------------------------------------|--------------------------|


        D#7                           D#7/C
         2:3|        2:3|        2:3      2:3
   T  T  S  S  T  T  S  S  T  T  S S T  T S S
|-17-20-17S14-14-17-14S11-11-14-11S8-8-11-8S5S|
|---------------------------------------------|
|---------------------------------------------|
|---------------------------------------------|
|---------------------------------------------|
|---------------------------------------------|
|
|        2:3|        2:3|        2:3      2:3
|  T  T  S  S  T  T  S  S  T  T  S S T  T S S
|-17-20-17S14-14-17-14S11-11-14-11S8-8-14-8S5S|
|---------------------------------------------|
|---------------------------------------------|
|---------------------------------------------|
|---------------------------------------------|
|---------------------------------------------|
|
|  W
|--2------------------------------------------|
|--4------------------------------------------|
|--5------------------------------------------|
|--4------------------------------------------|
|---------------------------------------------|
|---------------------------------------------|


      D#7/A           D#7/F#
          2:3      2:3
   T   T  S S T  T S S E  Q   E
|-11--14-11S8-8-11-8S5-8S22\--8\-||
|--------------------------------||
|--------------------------------||
|--------------------------------||
|--------------------------------||
|--------------------------------||
|
|         2:3      2:3
|  T   T  S S T  T S S E  Q   E
|-11--14-11S8-8-11-8S5-8S22\--8\-||
|--------------------------------||
|--------------------------------||
|--------------------------------||
|--------------------------------||
|--------------------------------||
|
| +W
|-(2)----------------------------||
|-(4)----------------------------||
|-(5)----------------------------||
|-(4)----------------------------||
|--------------------------------||
|--------------------------------||


 Theme II
  Am
   H.       Q     Q    Q   Q   Q         +H.       Q     Q    Q   Q   Q
|--------------|----------------------|---------------|---------------------|
|--------------|----------------------|---------------|----------17--18b20--|
|--------------|------16--17--17pb19r=|=(17)------16--|-17---19-------------|
|-19-------18--|-19-------------------|---------------|---------------------|
|--------------|----------------------|---------------|---------------------|
|--------------|----------------------|---------------|---------------------|
|
|  H.       Q     Q    Q   Q   Q          H.       Q     Q    Q   Q   Q
|--------------|----------------------|---------------|---------------------|
|--------------|----------------------|---------------|---------------------|
|--------------|----------------------|---------------|---------------------|
|--------------|----------------------|---------------|------12--14--15b17--|
|-12-------11--|-12---14--15--15pb17r=|==15-------14--|-15------------------|
|--------------|----------------------|---------------|---------------------|
|
|  W             +W                      +W             +W
|--5-----------|-(5)------------------|--(5)----------|-(5)-----------------|
|--5-----------|-(5)------------------|--(5)----------|-(5)-----------------|
|--5-----------|-(5)------------------|--(5)----------|-(5)-----------------|
|--7-----------|-(7)------------------|--(7)----------|-(7)-----------------|
|--------------|----------------------|---------------|---------------------|
|--------------|----------------------|---------------|---------------------|


  Dm                                D#7                 E
   H.       Q     Q    Q   Q   Q     H.       S  S  S  S
|--------------|----------17--19--|-20-------20-19-17----|
|-18-------17--|-18---20----------|-------------------18-|
|--------------|------------------|----------------------|
|--------------|------------------|----------------------|
|--------------|------------------|----------------------|
|--------------|------------------|----------------------|
|
|  H.       Q     Q    Q   Q   Q     W
|--------------|------------------|----------------------|
|--------------|------------------|----------------------|
|--------------|----------14--16--|-17-------------------|
|-15-------14--|-15---17----------|----------------------|
|--------------|------------------|----------------------|
|--------------|------------------|----------------------|
|
|  W             +W                  W
|--5-----------|-(5)--------------|--5-------------------|
|--6-----------|-(6)--------------|--7-------------------|
|--7-----------|-(7)--------------|--8-------------------|
|--7-----------|-(7)--------------|--7-------------------|
|--------------|------------------|----------------------|
|--------------|------------------|----------------------|


   S  S  S  S  S  S  S  S  S  S  S  S  +Q
|--------------------------------------------|
|-17-15--------------------------------------|
|-------17-16-14-----------------------------|
|----------------15-14-12--------------------|
|-------------------------15-14-12S11-(11)---|
|--------------------------------------------|
|
|  H                       H
|--------------------------------------------|
|--------------------------------------------|
|-16----------------------13-----------------|
|--------------------------------------------|
|--------------------------------------------|
|--------------------------------------------|
|
|  H                       H
|--------------------------------------------|
|-10-----------------------9-----------------|
|--9-----------------------9-----------------|
|--9-----------------------9-----------------|
|--------------------------------------------|
|--------------------------------------------|


  Am
   H.       Q     Q    Q   Q   S  E.
|--------------|---------------------|
|--------------|---------------------|
|--------------|------16--17--17h19--|
|-19-------18--|-19------------------|
|--------------|---------------------|
|--------------|---------------------|
|
|  H.       Q     Q    Q   Q   S  E.
|--------------|---------------------|
|--------------|---------------------|
|--------------|---------------------|
|--------------|---------------------|
|-12-------11--|-12---14--15--15h17--|
|--------------|---------------------|
|
|  W             +W
|--5-----------|-(5)-----------------|
|--5-----------|-(5)-----------------|
|--5-----------|-(5)-----------------|
|--7-----------|-(7)-----------------|
|--------------|---------------------|
|--------------|---------------------|


   H      +E.  T  T  Q     Q    Q   Q   S  E.
|-----------------------|----------------------|
|-----------------------|----------17--18h20---|
|-17-----(17)-19p17-16--|-17---19--------------|
|-----------------------|----------------------|
|-----------------------|----------------------|
|-----------------------|----------------------|
|
|  H      +E.  T  T  Q     Q    Q   Q   S  E.
|-----------------------|----------------------|
|-----------------------|----------------------|
|-----------------------|----------------------|
|-----------------------|------12--14--15h17---|
|-15-----(15)-17p15-14--|-15-------------------|
|-----------------------|----------------------|
|
| +W                      +W
|-(5)-------------------|-(5)------------------|
|-(5)-------------------|-(5)------------------|
|-(5)-------------------|-(5)------------------|
|-(7)-------------------|-(7)------------------|
|-----------------------|----------------------|
|-----------------------|----------------------|


  Dm                                   D#7
   H.          Q     Q    Q   Q   Q     H     +E   E  E  E
|-----------------|----------17--19--|-20----(20)-19-17S16-|
|-18tr20------17--|-18---20----------|---------------------|
|-----------------|------------------|---------------------|
|-----------------|------------------|---------------------|
|-----------------|------------------|---------------------|
|-----------------|------------------|---------------------|
|
|  H.          Q     Q    Q   Q   Q     W
|-----------------|------------------|---------------------|
|-----------------|------------------|---------------------|
|-----------------|----------14--16--|-17------------------|
|-15tr17------14--|-15---17----------|---------------------|
|-----------------|------------------|---------------------|
|-----------------|------------------|---------------------|
|
|  W                +W                  W
|--5--------------|-(5)--------------|--5------------------|
|--6--------------|-(6)--------------|--7------------------|
|--7--------------|-(7)--------------|--8------------------|
|--7--------------|-(7)--------------|--7------------------|
|-----------------|------------------|---------------------|
|-----------------|------------------|---------------------|


  E
   S  S  S  S  S  S  S  S  S  S  S  S  Q
|-----------------------------------------|
|-18-17-15--------------------------------|
|----------17-16-14-----------------------|
|-------------------15-14-12--------------|
|----------------------------15-14-12S11--|
|-----------------------------------------|
|
|  H                       H
|-----------------------------------------|
|-----------------------------------------|
|-16----------------------13--------------|
|-----------------------------------------|
|-----------------------------------------|
|-----------------------------------------|
|
|  H                       H
|-----------------------------------------|
|-10-----------------------9--------------|
|--9-----------------------9--------------|
|--9-----------------------9--------------|
|-----------------------------------------|
|-----------------------------------------|


  F
   H.       Q      Q    Q   Q   +Q
|--------------|-------19--20--(20)b22--|
|-22-------21--|--22--------------------|
|--------------|------------------------|
|--------------|------------------------|
|--------------|------------------------|
|--------------|------------------------|
|
|  W              +W
|--------------|------------------------|
|-18-----------|-(18)-------------------|
|--------------|------------------------|
|--------------|------------------------|
|--------------|------------------------|
|--------------|------------------------|
|
|  W              +W
|--5-----------|--(5)-------------------|
|--6-----------|--(6)-------------------|
|--5-----------|--(5)-------------------|
|--7-----------|--(7)-------------------|
|--------------|------------------------|
|--------------|------------------------|


  D/F#
   W            Q       +Q    Q   +Q
|-22--------|--20pb22r=(20)--19--(19)b20--|
|-----------|-----------------------------|
|-----------|-----------------------------|
|-----------|-----------------------------|
|-----------|-----------------------------|
|-----------|-----------------------------|
|
|  W           +W
|-----------|-----------------------------|
|-19--------|-(19)------------------------|
|-----------|-----------------------------|
|-----------|-----------------------------|
|-----------|-----------------------------|
|-----------|-----------------------------|
|
|  W           +W
|--5--------|--(5)------------------------|
|--7--------|--(7)------------------------|
|--7--------|--(7)------------------------|
|--7--------|--(7)------------------------|
|-----------|-----------------------------|
|-----------|-----------------------------|


  G
   W            Q    Q   Q   Q
|-19--------|--19---20--22--22b24--|
|-----------|----------------------|
|-----------|----------------------|
|-----------|----------------------|
|-----------|----------------------|
|-----------|----------------------|
|
|  W           +W
|-----------|----------------------|
|-20--------|-(20)-----------------|
|-----------|----------------------|
|-----------|----------------------|
|-----------|----------------------|
|-----------|----------------------|
|
|  W           +W
|--7--------|--(7)-----------------|
|--8--------|--(8)-----------------|
|--7--------|--(7)-----------------|
|--9--------|--(9)-----------------|
|-----------|----------------------|
|-----------|----------------------|


  E/G#
   Q       +E       E  +H        +Q.     Q.    +E    E
|-----------------------------|------------------------|
|-----------------------------|------------------------|
|-21------(21)b22==21-(21)----|-(21)----21----(21)r-19-|
|-----------------------------|------------------------|
|-----------------------------|------------------------|
|-----------------------------|------------------------|
|
|  W                             +W
|-----------------------------|------------------------|
|-----------------------------|------------------------|
|-17b19=======================|=(17)r------------------|
|-----------------------------|------------------------|
|-----------------------------|------------------------|
|-----------------------------|------------------------|
|
|  W                             +W
|--7--------------------------|--(7)-------------------|
|--9--------------------------|--(9)-------------------|
|--9--------------------------|--(9)-------------------|
|--9--------------------------|--(9)-------------------|
|-----------------------------|------------------------|
|-----------------------------|------------------------|


  Am
   S  S  S  S  S  S  S  S  S  S  S  S  S  S  S  S
|-------------------------------------------------|
|-------------------------------------------------|
|-22-21-19-22-21-19S17-21-19-17S16-19-17-16S14-17-|
|-------------------------------------------------|
|-------------------------------------------------|
|-------------------------------------------------|
|
|  W
|-------------------------------------------------|
|-------------------------------------------------|
|-17----------------------------------------------|
|-------------------------------------------------|
|-------------------------------------------------|
|-------------------------------------------------|
|
|  W
|--5----------------------------------------------|
|--5----------------------------------------------|
|--5----------------------------------------------|
|--7----------------------------------------------|
|-------------------------------------------------|
|-------------------------------------------------|


                               E
    S   S  S  S  S  S  S  S  H
|---------------------------------||
|---------------------------------||
|--16--14S13-16-14-16-14-13-14----||
|---------------------------------||
|---------------------------------||
|---------------------------------||
|
|  +W
|---------------------------------||
|---------------------------------||
|-(17)----------------------------||
|---------------------------------||
|---------------------------------||
|---------------------------------||
|
|  +W
|--(5)----------------------------||
|--(5)----------------------------||
|--(5)----------------------------||
|--(7)----------------------------||
|---------------------------------||
|---------------------------------||


 Theme III
  Am
  Q   S   S  S  S  S  S  S  S  S  S  S  S
|-----------------------------------------|
|----22--20-18S17-20-18-17S15-18-17-15S13-|
|-----------------------------------------|
|-----------------------------------------|
|-----------------------------------------|
|-----------------------------------------|
|
| Q   S   S  S  S  S  S  S  S  S  S  S  S
|----20--19-17S15-19-17-15S13-17-15-13S12-|
|-----------------------------------------|
|-----------------------------------------|
|-----------------------------------------|
|-----------------------------------------|
|-----------------------------------------|
|
| Q   H.
|-5---------------------------------------|
|-5---------------------------------------|
|-5---------------------------------------|
|-7---------------------------------------|
|-----------------------------------------|
|-----------------------------------------|


                                         E
   S   S  S  S  S  S  S  S      +H
|--------------------------------------------|
|-17--15-13S12-15-13-12S10tr12-(10tr12)------|
|--------------------------------------------|
|--------------------------------------------|
|--------------------------------------------|
|--------------------------------------------|
|
|  S   S  S  S  S  S  S  S      +H
|-15--13-12S10-13-12-10S=8------(8tr10)------|
|--------------------------------------------|
|--------------------------------------------|
|--------------------------------------------|
|--------------------------------------------|
|--------------------------------------------|
|
|  H.                                    Q
|----------------------------------------4---|
|----------------------------------------5---|
|----------------------------------------4---|
|----------------------------------------6---|
|--------------------------------------------|
|--------------------------------------------|


  Am
  Q   S   S  S  S  S  S  S  S  S  S  S  S
|-----------------------------------------|
|----22--20-18S17-20-18-17S15-18-17-15S13-|
|-----------------------------------------|
|-----------------------------------------|
|-----------------------------------------|
|-----------------------------------------|
|
| Q   S   S  S  S  S  S  S  S  S  S  S  S
|----20--19-17S15-19-17-15S13-17-15-13S12-|
|-----------------------------------------|
|-----------------------------------------|
|-----------------------------------------|
|-----------------------------------------|
|-----------------------------------------|
|
| Q   H.
|-5---------------------------------------|
|-5---------------------------------------|
|-5---------------------------------------|
|-7---------------------------------------|
|-----------------------------------------|
|-----------------------------------------|


                                         E
   S   S  S  S  S  S  S  S      +H
|--------------------------------------------|
|-17--15-13S12-15-13-12S10tr12-(10tr12)------|
|--------------------------------------------|
|--------------------------------------------|
|--------------------------------------------|
|--------------------------------------------|
|
|  S   S  S  S  S  S  S  S      +H
|-15--13-12S10-13-12-10S=8------(8tr10)------|
|--------------------------------------------|
|--------------------------------------------|
|--------------------------------------------|
|--------------------------------------------|
|--------------------------------------------|
|
|  H.                                    Q
|----------------------------------------4---|
|----------------------------------------5---|
|----------------------------------------4---|
|----------------------------------------6---|
|--------------------------------------------|
|--------------------------------------------|


  F
  Q   S   S  S  S  S  S  S  S  S  S  S  S
|-----------------------------------------|
|--------------------15-17-18-17-15-------|
|-----------14-16-17----------------17-16-|
|----15--17-------------------------------|
|-----------------------------------------|
|-----------------------------------------|
|
| W
|-----------------------------------------|
|-----------------------------------------|
|-----------------------------------------|
|-----------------------------------------|
|-----------------------------------------|
|-----------------------------------------|
|
| Q   H.
|-5---------------------------------------|
|-6---------------------------------------|
|-5---------------------------------------|
|-7---------------------------------------|
|-----------------------------------------|
|-----------------------------------------|


                                    E
   S   S  S  S  S  S  S  S  S  S  E  +Q
|-----------------------------------------|
|-----------------------------------------|
|-14--------------------------------------|
|-----17-15-14----------------------------|
|--------------17-15-14-------------------|
|-----------------------17-15-13S12-(12)--|
|
|  W
|-----------------------------------------|
|-----------------------------------------|
|-----------------------------------------|
|-----------------------------------------|
|-----------------------------------------|
|-----------------------------------------|
|
|  H.                                 Q
|-------------------------------------4---|
|-------------------------------------5---|
|-------------------------------------4---|
|-------------------------------------6---|
|-----------------------------------------|
|-----------------------------------------|


  Am
  Q   S   S  S  S  S  S  S  S  S  S  S  S
|-----------------------------------------|
|----22--20-18S17-20-18-17S15-18-17-15S13-|
|-----------------------------------------|
|-----------------------------------------|
|-----------------------------------------|
|-----------------------------------------|
|
| Q   S   S  S  S  S  S  S  S  S  S  S  S
|----20--19-17S15-19-17-15S13-17-15-13S12-|
|-----------------------------------------|
|-----------------------------------------|
|-----------------------------------------|
|-----------------------------------------|
|-----------------------------------------|
|
| Q   H.
|-5---------------------------------------|
|-5---------------------------------------|
|-5---------------------------------------|
|-7---------------------------------------|
|-----------------------------------------|
|-----------------------------------------|


                                         Am/E
   S   S  S  S  S  S  S  S      +H
|--------------------------------------------|
|-17--15-13S12-15-13-12S10tr12-(10tr12)------|
|--------------------------------------------|
|--------------------------------------------|
|--------------------------------------------|
|--------------------------------------------|
|
|  S   S  S  S  S  S  S  S      +H
|-15--13-12S10-13-12-10S=8------(8tr10)------|
|--------------------------------------------|
|--------------------------------------------|
|--------------------------------------------|
|--------------------------------------------|
|--------------------------------------------|
|
|  H.                                    Q
|----------------------------------------5---|
|----------------------------------------5---|
|----------------------------------------5---|
|----------------------------------------7---|
|--------------------------------------------|
|--------------------------------------------|


  D#7
   S S S  S S  S  S  S  S  S  S  S  S  S  S  S
|----------------------------------------------|
|-10-7---------7S13-10----------10S16-13-------|
|------8----8----------11----11----------14----|
|--------10---------------13----------------16-|
|----------------------------------------------|
|----------------------------------------------|
|
|  W
|----------------------------------------------|
|----------------------------------------------|
|----------------------------------------------|
|----------------------------------------------|
|----------------------------------------------|
|----------------------------------------------|
|
|  Q        H.
|--5-------------------------------------------|
|--4-------------------------------------------|
|--5-------------------------------------------|
|--7-------------------------------------------|
|----------------------------------------------|
|----------------------------------------------|


   S  S  S  S  S   S  S  S  H
|--------------------------17----|
|----13S19-16-----------16-------|
|-14----------17-----17----------|
|-----------------19-------------|
|--------------------------------|
|--------------------------------|
|
|  W
|--------------------------------|
|--------------------------------|
|--------------------------------|
|--------------------------------|
|--------------------------------|
|--------------------------------|
|
|  Q           H.
|--5-----------------------------|
|--4-----------------------------|
|--5-----------------------------|
|--7-----------------------------|
|--------------------------------|
|--------------------------------|


  Esus4
   |--3--|
   S  S  S  S  S  S  S  S  S  S  S  S  S  S  S
|-19-17-16-20-19-17S16-20-19-17S16-19-17-16S13-|
|----------------------------------------------|
|----------------------------------------------|
|----------------------------------------------|
|----------------------------------------------|
|----------------------------------------------|
|
|  W
|----------------------------------------------|
|----------------------------------------------|
|----------------------------------------------|
|----------------------------------------------|
|----------------------------------------------|
|----------------------------------------------|
|
|  W
|----------------------------------------------|
|-10-------------------------------------------|
|--9-------------------------------------------|
|--9-------------------------------------------|
|----------------------------------------------|
|----------------------------------------------|


  E
                            |-----5-----|  |-----5-----|
   S   S  S  S  S  S  S  S  S  S  S  S  S  S  S  S  S  S
|-17--16-13-----------------------------------------------|
|-----------17-18-17-15-----------------------------------|
|-----------------------16-14-13--------------------------|
|--------------------------------15-14-12-----------------|
|-----------------------------------------15-14-12--------|
|--------------------------------------------------16-13--|
|
|  W
|---------------------------------------------------------|
|---------------------------------------------------------|
|---------------------------------------------------------|
|---------------------------------------------------------|
|---------------------------------------------------------|
|---------------------------------------------------------|
|
|  W
|---------------------------------------------------------|
|--9------------------------------------------------------|
|-(9)-----------------------------------------------------|
|-(9)-----------------------------------------------------|
|---------------------------------------------------------|
|---------------------------------------------------------|


  Am
   Q   S   S  S  S  S  S  S  S  S  S  S  S
|------------------------------------------|
|-----22--20-18S17-20-18-17S15-18-17-15S13-|
|------------------------------------------|
|------------------------------------------|
|------------------------------------------|
|-12---------------------------------------|
|
|  Q   S   S  S  S  S  S  S  S  S  S  S  S
|-----20--19-17S15-19-17-15S13-17-15-13S12-|
|------------------------------------------|
|------------------------------------------|
|------------------------------------------|
|------------------------------------------|
|------------------------------------------|
|
|  Q   H.
|--5---------------------------------------|
|--5---------------------------------------|
|--5---------------------------------------|
|--7---------------------------------------|
|------------------------------------------|
|------------------------------------------|


                                         E
   S   S  S  S  S  S  S  S      +H
|--------------------------------------------|
|-17--15-13S12-15-13-12S10tr12-(10tr12)------|
|--------------------------------------------|
|--------------------------------------------|
|--------------------------------------------|
|--------------------------------------------|
|
|  S   S  S  S  S  S  S  S      +H
|-15--13-12S10-13-12-10S=8tr10--(8tr10)------|
|--------------------------------------------|
|--------------------------------------------|
|--------------------------------------------|
|--------------------------------------------|
|--------------------------------------------|
|
|  H.                                    Q
|----------------------------------------4---|
|----------------------------------------5---|
|----------------------------------------4---|
|----------------------------------------6---|
|--------------------------------------------|
|--------------------------------------------|


  Am
  Q   S   S  S  S  S  S  S  S  S  S  S  S
|-----------------------------------------|
|----22--20-18S17-20-18-17S15-18-17-15S13-|
|-----------------------------------------|
|-----------------------------------------|
|-----------------------------------------|
|-----------------------------------------|
|
| Q   S   S  S  S  S  S  S  S  S  S  S  S
|----20--19-17S15-19-17-15S13-17-15-13S12-|
|-----------------------------------------|
|-----------------------------------------|
|-----------------------------------------|
|-----------------------------------------|
|-----------------------------------------|
|
| Q   H.
|-5---------------------------------------|
|-5---------------------------------------|
|-5---------------------------------------|
|-7---------------------------------------|
|-----------------------------------------|
|-----------------------------------------|


                                     E
   S   S  S  S  S  S  S  S  +H
|----------------------------------------|
|-17--15-13S12-15-13-12S10-(10)----------|
|----------------------------------------|
|----------------------------------------|
|----------------------------------------|
|----------------------------------------|
|
|  S   S  S  S  S  S  S  S  +H
|-15--13-12S10-13-12-10S=8--(8tr10)------|
|----------------------------------------|
|----------------------------------------|
|----------------------------------------|
|----------------------------------------|
|----------------------------------------|
|
|  H.                                Q
|------------------------------------4---|
|------------------------------------5---|
|------------------------------------4---|
|------------------------------------6---|
|----------------------------------------|
|----------------------------------------|


  F
                   |-----5-----|  |-----5-----|
  Q   S   S  S  S  S  S  S  S  S  S  S  S  S  S
|-----------------------------------------------|
|-----------------------------15-17-18-17-15----|
|--------------------14-16-17----------------17-|
|-----------14-15-17----------------------------|
|----15--17-------------------------------------|
|-----------------------------------------------|
|
| W
|-----------------------------------------------|
|-----------------------------------------------|
|-----------------------------------------------|
|-----------------------------------------------|
|-----------------------------------------------|
|-----------------------------------------------|
|
| Q   H.
|-5---------------------------------------------|
|-6---------------------------------------------|
|-5---------------------------------------------|
|-7---------------------------------------------|
|-----------------------------------------------|
|-----------------------------------------------|


                                       E
   S   S  S  S  S  S  S  S  S  S  S  S  +Q
|---------------------------------------------|
|---------------------------------------------|
|-16--14--------------------------------------|
|--------17-15-14-----------------------------|
|-----------------17-15-14--------------------|
|--------------------------17-15-13S12-(12)---|
|
|  W
|---------------------------------------------|
|---------------------------------------------|
|---------------------------------------------|
|---------------------------------------------|
|---------------------------------------------|
|---------------------------------------------|
|
|  H.                                    Q
|----------------------------------------4----|
|----------------------------------------5----|
|----------------------------------------4----|
|----------------------------------------6----|
|---------------------------------------------|
|---------------------------------------------|


  Am
  Q   S   S  S  S  S  S  S  S  S  S  S  S
|-----------------------------------------|
|----22--20-18S17-20-18-17S15-18-17-15S13-|
|-----------------------------------------|
|-----------------------------------------|
|-----------------------------------------|
|-----------------------------------------|
|
| Q   S   S  S  S  S  S  S  S  S  S  S  S
|----20--19-17S15-19-17-15S13-17-15-13S12-|
|-----------------------------------------|
|-----------------------------------------|
|-----------------------------------------|
|-----------------------------------------|
|-----------------------------------------|
|
| Q   H.
|-5---------------------------------------|
|-5---------------------------------------|
|-5---------------------------------------|
|-7---------------------------------------|
|-----------------------------------------|
|-----------------------------------------|


   S   S  S  S  S  S  S  S      +H
|--------------------------------------------|
|-17--15-13S12-15-13-12S10tr12-(10tr12)------|
|--------------------------------------------|
|--------------------------------------------|
|--------------------------------------------|
|--------------------------------------------|
|
|  S   S  S  S  S  S  S  S      +H
|-15--13-12S10-13-12-10S=8------(8tr10)------|
|--------------------------------------------|
|--------------------------------------------|
|--------------------------------------------|
|--------------------------------------------|
|--------------------------------------------|
|
|  H.                                    Q
|----------------------------------------5---|
|----------------------------------------5---|
|----------------------------------------5---|
|----------------------------------------7---|
|--------------------------------------------|
|--------------------------------------------|


  D#7
   |-------6-------|  |------6-------|    |-------6-------|  |------6-------|
   E  E  E  E   E  E  E  E  E  E  E  E    E  E  E  E   E  E  E  E  E  E  E  E
|-17-20-17-14--20-17-20-17-14-20-17-20-|-17-14-20-17--20-17-14-20-17-20-17-14-|
|--------------------------------------|--------------------------------------|
|--------------------------------------|--------------------------------------|
|--------------------------------------|--------------------------------------|
|--------------------------------------|--------------------------------------|
|--------------------------------------|--------------------------------------|
|
|  W                                      W
|--------------------------------------|--------------------------------------|
|--------------------------------------|--------------------------------------|
|--------------------------------------|--------------------------------------|
|--------------------------------------|--------------------------------------|
|--------------------------------------|--------------------------------------|
|--------------------------------------|--------------------------------------|
|
|  Q        H.                            Q        H.
|--5-----------------------------------|--5-----------------------------------|
|--4-----------------------------------|--4-----------------------------------|
|--5-----------------------------------|--5-----------------------------------|
|--7-----------------------------------|--7-----------------------------------|
|--------------------------------------|--------------------------------------|
|--------------------------------------|--------------------------------------|


  E7add2
   |--3--|
   S  S  S  S  S  S  S  S  S  S  S  S  S S S
|-19-16----19-16S13----16-13S10----13-10S7---|
|-------18----------15----------12---------9-|
|--------------------------------------------|
|--------------------------------------------|
|--------------------------------------------|
|--------------------------------------------|
|
|  W
|--------------------------------------------|
|--------------------------------------------|
|--------------------------------------------|
|--------------------------------------------|
|--------------------------------------------|
|--------------------------------------------|
|
|  W
|--------------------------------------------|
|--9-----------------------------------------|
|--9-----------------------------------------|
|--9-----------------------------------------|
|--------------------------------------------|
|--------------------------------------------|


                                 Am
                                  |-----5-----|  |-----5-----|  |-----5-----|
   S   S S S  S S S S E   Q.      S  S  S  S  S  S  S  S  S  S  S  S  S  S  S  S  S  S  S
|-13--10S7---10-7---7-7-/19\---|-20-19-17-20-19-17S15-19-17-15S13-17-15-13S12-15-13-12S10-|
|----------9------9------------|----------------------------------------------------------|
|------------------------------|----------------------------------------------------------|
|------------------------------|----------------------------------------------------------|
|------------------------------|----------------------------------------------------------|
|------------------------------|----------------------------------------------------------|
|
|  W                              W
|------------------------------|----------------------------------------------------------|
|------------------------------|----------------------------------------------------------|
|------------------------------|----------------------------------------------------------|
|------------------------------|----------------------------------------------------------|
|------------------------------|----------------------------------------------------------|
|------------------------------|----------------------------------------------------------|
|
| +W                              W
|------------------------------|--5-------------------------------------------------------|
|-(9)--------------------------|--5-------------------------------------------------------|
|-(9)--------------------------|--5-------------------------------------------------------|
|-(9)--------------------------|--7-------------------------------------------------------|
|------------------------------|----------------------------------------------------------|
|------------------------------|----------------------------------------------------------|


   S   S  S S  S  S S S  S S S S S S S S
|-13--12-10S8-12-10-8S7-10-8-7S5-8-7-5-7--|
|-----------------------------------------|
|-----------------------------------------|
|-----------------------------------------|
|-----------------------------------------|
|-----------------------------------------|
|
|  W
|-----------------------------------------|
|-----------------------------------------|
|-----------------------------------------|
|-----------------------------------------|
|-----------------------------------------|
|-----------------------------------------|
|
| +W
|-(5)-------------------------------------|
|-(5)-------------------------------------|
|-(5)-------------------------------------|
|-(7)-------------------------------------|
|-----------------------------------------|
|-----------------------------------------|


    |-----5------|
    S   S  S  S  S  S  S  S S  S  S S S  S S S S    S  S S S S S S S +H
|------------------------------------------------|--------------------------||
|------------------------------------------------|--------------------------||
|-/14--12-14-12-10-14-12-10S9-12-10-9S7-10-9-7S5-|--9--7-5S4-7-5-4S2-(2)----||
|------------------------------------------------|--------------------------||
|------------------------------------------------|--------------------------||
|------------------------------------------------|--------------------------||
|
|   W                                               W
|------------------------------------------------|--------------------------||
|------------------------------------------------|--------------------------||
|------------------------------------------------|--------------------------||
|------------------------------------------------|--------------------------||
|------------------------------------------------|--------------------------||
|------------------------------------------------|--------------------------||
|
|  +W                                              +W
|--(5)-------------------------------------------|-(5)----------------------||
|--(5)-------------------------------------------|-(5)----------------------||
|--(5)-------------------------------------------|-(5)----------------------||
|--(7)-------------------------------------------|-(7)----------------------||
|------------------------------------------------|--------------------------||
|------------------------------------------------|--------------------------||


 Theme IV
  Am
  E  E  E  E  E  E  E  E    W
|------------------------|-------------------------|
|---17-15-17-13-17----17-|-------------------------|
|------------------16----|-14----------------------|
|------------------------|-------------------------|
|------------------------|-------------------------|
|------------------------|-------------------------|
|
| W                         E  E  E  E  E  E  E  E
|------------------------|-------------------------|
|------------------------|----17-15-17-13-17----17-|
|------------------------|-------------------16----|
|------------------------|-------------------------|
|------------------------|-------------------------|
|------------------------|-------------------------|
|
| W                         W
|------------------------|-------------------------|
|------------------------|-------------------------|
|------------------------|-------------------------|
|------------------------|-------------------------|
|------------------------|-------------------------|
|------------------------|-------------------------|


   +E   E  E  E  E  E  E  E     W
|---------------------------|---------------------------|
|------17-15-17-13-17----17-|---------------------------|
|-(14)----------------16----|--14-----------------------|
|---------------------------|---------------------------|
|---------------------------|---------------------------|
|---------------------------|---------------------------|
|
|   W                          +E   E  E  E  E  E  E  E
|---------------------------|---------------------------|
|---------------------------|------17-15-17-13-17----17-|
|--14-----------------------|-(14)----------------16----|
|---------------------------|---------------------------|
|---------------------------|---------------------------|
|---------------------------|---------------------------|
|
|   W                           W
|---------------------------|---------------------------|
|---------------------------|---------------------------|
|---------------------------|---------------------------|
|---------------------------|---------------------------|
|---------------------------|---------------------------|
|---------------------------|---------------------------|


  Dm
   +E   E  E  E  E  E  E  E    W
|---------------------------|-------------------------|
|------18-17-18-15-18----18-|-------------------------|
|-(14)----------------17----|-16----------------------|
|---------------------------|-------------------------|
|---------------------------|-------------------------|
|---------------------------|-------------------------|
|
|   W                          E  E  E  E  E  E  E  E
|---------------------------|-------------------------|
|---------------------------|----18-17-18-15-18----18-|
|--14-----------------------|-14----------------17----|
|---------------------------|-------------------------|
|---------------------------|-------------------------|
|---------------------------|-------------------------|
|
|   W                          W
|---------------------------|-------------------------|
|---------------------------|-------------------------|
|---------------------------|-------------------------|
|---------------------------|-------------------------|
|---------------------------|-------------------------|
|---------------------------|-------------------------|


  Am
   +E   E  E  E  E  E  E  E     W
|---------------------------|---------------------------|
|------17-15-17-13-17----17-|---------------------------|
|-(16)----------------16----|--14-----------------------|
|---------------------------|---------------------------|
|---------------------------|---------------------------|
|---------------------------|---------------------------|
|
|   W                          +E   E  E  E  E  E  E  E
|---------------------------|---------------------------|
|---------------------------|------17-15-17-13-17----17-|
|--16-----------------------|-(16)----------------16----|
|---------------------------|---------------------------|
|---------------------------|---------------------------|
|---------------------------|---------------------------|
|
|   W                           W
|---------------------------|---------------------------|
|---------------------------|---------------------------|
|---------------------------|---------------------------|
|---------------------------|---------------------------|
|---------------------------|---------------------------|
|---------------------------|---------------------------|


  D#7
   +E   E  E  E  E  E  E  E     E   E  E  E  H
|---------------------------|---------------------------|
|------------13-16-13-------|---------------------------|
|-(14)-11-14----------14-11-|---------------------------|
|---------------------------|--13--10----10-------------|
|---------------------------|---------12-----9----------|
|---------------------------|---------------------------|
|
|   W                          +E   E  E  E  E  E  E  E
|---------------------------|---------------------------|
|---------------------------|------------13-16-13-------|
|--14-----------------------|-(14)-11-14----------14-11-|
|---------------------------|---------------------------|
|---------------------------|---------------------------|
|---------------------------|---------------------------|
|
|   W                           W
|---------------------------|---------------------------|
|---------------------------|---------------------------|
|---------------------------|---------------------------|
|---------------------------|---------------------------|
|---------------------------|---------------------------|
|---------------------------|---------------------------|


  D7
  +E   E  E  E  E  E  E  E    E   E  E  E  E  E  E  E
|--------------------------|--------------------------|
|-----------12-15-12-------|--------------------------|
|-----10-13----------13-10-|-----10----------10-------|
|--------------------------|-12------9-12-12-----9-12-|
|-(9)----------------------|--------------------------|
|--------------------------|--------------------------|
|
|  E   E  E  E  H            +E   E  E  E  E  E  E  E
|--------------------------|--------------------------|
|--------------------------|-----------12-15-12-------|
|--------------------------|-----10-13----------13-10-|
|-12---9-----9-------------|--------------------------|
|--------11-----8----------|-(8)----------------------|
|--------------------------|--------------------------|
|
|  W                          W
|--------------------------|--------------------------|
|--------------------------|--------------------------|
|--------------------------|--------------------------|
|--------------------------|--------------------------|
|--------------------------|--------------------------|
|--------------------------|--------------------------|


  D#7/F#
   E E  E  E  E  E  E  E     E  E  E  E  E  E  E E
|------------------------|-------------------------|
|---------10-13-10-------|-------------------------|
|----8-11----------11--8-|------8------------------|
|------------------------|--10-----7-10-----7------|
|------------------------|---------------9-----6-9-|
|------------------------|-------------------------|
|
|  E E  E  E  E  E  E  E    +E  E  E  E  E  E  E E
|------------------------|-------------------------|
|------------------------|-----------10-13-10------|
|----8-----------8-------|------8-11----------11-8-|
|-10----7-10-10-----7-10-|-(10)--------------------|
|------------------------|-------------------------|
|------------------------|-------------------------|
|
|  W                         W
|------------------------|-------------------------|
|------------------------|-------------------------|
|------------------------|-------------------------|
|------------------------|-------------------------|
|------------------------|-------------------------|
|------------------------|-------------------------|


  D7/F
  E E  E E  E E  E E    E  E  E E  E E  Q
|--------------------|----------------------|
|--------9-12-9------|----------------------|
|---7-10--------10-7-|-----7----------------|
|--------------------|--9-----6-9----6------|
|--------------------|-------------8----5---|
|--------------------|----------------------|
|
| E E  E E  E E  E E   +E  E  E E  E E  E E
|--------------------|----------------------|
|--------------------|----------9-12-9------|
|---7----------------|-----7-10--------10-7-|
|-9----6-9----6------|----------------------|
|-----------8----5-8-|-(8)------------------|
|--------------------|----------------------|
|
| W                     W
|--------------------|----------------------|
|--------------------|----------------------|
|--------------------|----------------------|
|--------------------|----------------------|
|--------------------|----------------------|
|--------------------|----------------------|


  Am      E/B      Am/C     E/G#      Am      E/B      Am/C     E
  S S S S  S S S S  S S S S S S S S   S S S S  S S S S  S S S S S S S S
|-5-0-0-0--7-0-0-0--8-0-0-0-4-0-0-0-|-5-0-0-0--7-0-0-0--8-0-0-0-4-0-0-0-|
|-----------------------------------|-----------------------------------|
|-----------------------------------|-----------------------------------|
|-----------------------------------|-----------------------------------|
|-----------------------------------|-----------------------------------|
|-----------------------------------|-----------------------------------|
|
| S S S S  S S S S  S S S S S S S S   S S S S  S S S S  S S S S S S S S
|-8-0-0-0-10-0-0-0-12-0-0-0-7-0-0-0-|-8-0-0-0-10-0-0-0-12-0-0-0-7-0-0-0-|
|-----------------------------------|-----------------------------------|
|-----------------------------------|-----------------------------------|
|-----------------------------------|-----------------------------------|
|-----------------------------------|-----------------------------------|
|-----------------------------------|-----------------------------------|
|
| W                                   W
|-----------------------------------|-----------------------------------|
|-----------------------------------|-----------------------------------|
|-----------------------------------|-----------------------------------|
|-----------------------------------|-----------------------------------|
|-----------------------------------|-----------------------------------|
|-----------------------------------|-----------------------------------|


  Am      E/B      Am/C     E/G#
  S S S S  S S S S  S S S S  S S S S
|-5-0-0-0--7-0-0-0--8-0-0-0-12-0-0-0-|
|------------------------------------|
|------------------------------------|
|------------------------------------|
|------------------------------------|
|------------------------------------|
|
| S S S S  S S S S  S S S S  S S S S
|-8-0-0-0-10-0-0-0-12-0-0-0-16-0-0-0-|
|------------------------------------|
|------------------------------------|
|------------------------------------|
|------------------------------------|
|------------------------------------|
|
| W
|------------------------------------|
|------------------------------------|
|------------------------------------|
|------------------------------------|
|------------------------------------|
|------------------------------------|


  Am
   W          E  E  E  E  E  E  E  E    W
|-17--------|------------------------|-------------------------|
|-----------|---17-15-17-13-17----17-|-------------------------|
|-----------|------------------16----|-14----------------------|
|-----------|------------------------|-------------------------|
|-----------|------------------------|-------------------------|
|-----------|------------------------|-------------------------|
|
|  W          W                         E  E  E  E  E  E  E  E
|-20--------|------------------------|-------------------------|
|-----------|------------------------|----17-15-17-13-17----17-|
|-----------|------------------------|-------------------16----|
|-----------|------------------------|-------------------------|
|-----------|------------------------|-------------------------|
|-----------|------------------------|-------------------------|
|
|  W          W                         W
|-----------|------------------------|-------------------------|
|-----------|------------------------|-------------------------|
|-----------|------------------------|-------------------------|
|-----------|------------------------|-------------------------|
|-----------|------------------------|-------------------------|
|-----------|------------------------|-------------------------|


   +E   E  E  E  E  E  E  E     W
|---------------------------|---------------------------|
|------17-15-17-13-17----17-|---------------------------|
|-(14)----------------16----|--14-----------------------|
|---------------------------|---------------------------|
|---------------------------|---------------------------|
|---------------------------|---------------------------|
|
|   W                          +E   E  E  E  E  E  E  E
|---------------------------|---------------------------|
|---------------------------|------17-15-17-13-17----17-|
|--14-----------------------|-(14)----------------16----|
|---------------------------|---------------------------|
|---------------------------|---------------------------|
|---------------------------|---------------------------|
|
|   W                           W
|---------------------------|---------------------------|
|---------------------------|---------------------------|
|---------------------------|---------------------------|
|---------------------------|---------------------------|
|---------------------------|---------------------------|
|---------------------------|---------------------------|


  Dm
   +E   E  E  E  E  E  E  E     W
|---------------------------|------------------------------|
|------18-17-18-15-18----18-|------------------------------|
|-(14)----------------17----|--16tr17----------------------|
|---------------------------|------------------------------|
|---------------------------|------------------------------|
|---------------------------|------------------------------|
|
|   W                          +E      E  E  E  E  E  E  E
|---------------------------|------------------------------|
|---------------------------|---------18-17-18-15-18----18-|
|--14-----------------------|-(14)-------------------17----|
|---------------------------|------------------------------|
|---------------------------|------------------------------|
|---------------------------|------------------------------|
|
|   W                           W
|---------------------------|------------------------------|
|---------------------------|------------------------------|
|---------------------------|------------------------------|
|---------------------------|------------------------------|
|---------------------------|------------------------------|
|---------------------------|------------------------------|


  Am
   +E      E  E  E  E  E  E  E     W
|------------------------------|---------------------------|
|---------17-15-17-13-17----17-|---------------------------|
|-(16)-------------------16----|--14-----------------------|
|------------------------------|---------------------------|
|------------------------------|---------------------------|
|------------------------------|---------------------------|
|
|   W                             +E   E  E  E  E  E  E  E
|------------------------------|---------------------------|
|------------------------------|------17-15-17-13-17----17-|
|--16tr17----------------------|-(16)----------------16----|
|------------------------------|---------------------------|
|------------------------------|---------------------------|
|------------------------------|---------------------------|
|
|   W                              W
|------------------------------|---------------------------|
|------------------------------|---------------------------|
|------------------------------|---------------------------|
|------------------------------|---------------------------|
|------------------------------|---------------------------|
|------------------------------|---------------------------|


  D#7
   +E   E  E  E  E  E  E  E     E   E  E  E  E  E  Q
|---------------------------|---------------------------|
|------------13-16-13-------|---------------------------|
|-(14)-11-14----------14-11-|------11-------------------|
|---------------------------|--13-----10-13----10-------|
|---------------------------|---------------12-----9----|
|---------------------------|---------------------------|
|
|   W                          +E   E  E  E  E  E  E  E
|---------------------------|---------------------------|
|---------------------------|------------13-16-13-------|
|--14-----------------------|-(14)-11-14----------14-11-|
|---------------------------|---------------------------|
|---------------------------|---------------------------|
|---------------------------|---------------------------|
|
|   W                           W
|---------------------------|---------------------------|
|---------------------------|---------------------------|
|---------------------------|---------------------------|
|---------------------------|---------------------------|
|---------------------------|---------------------------|
|---------------------------|---------------------------|


  D7
   E  E  E  E  E  E  E  E    E  E  E  E  E  E  Q
|-------------------------|-------------------------|
|----------12-15-12-------|-------------------------|
|----10-13----------13-10-|----10-------------------|
|-------------------------|-12-----9-12-----9-------|
|-------------------------|-------------11-----8----|
|-------------------------|-------------------------|
|
|  E  E  E  E  E  E  Q       E  E  E  E  E  E  E  E
|-------------------------|-------------------------|
|-------------------------|----------12-15-12-------|
|----10-------------------|----10-13----------13-10-|
|-12-----9-12-----9-------|-------------------------|
|-------------11-----8----|-------------------------|
|-------------------------|-------------------------|
|
|  W                         W
|-------------------------|-------------------------|
|-------------------------|-------------------------|
|-------------------------|-------------------------|
|-------------------------|-------------------------|
|-------------------------|-------------------------|
|-------------------------|-------------------------|


  D#7/F#
   E E  E  E  E  E  E E    E E  E  E  E  E  Q
|-----------------------|-----------------------|
|---------10-13-10------|-----------------------|
|----8-11----------11-8-|----8------------------|
|-----------------------|-10----7-10-----7------|
|-----------------------|-------------9-----6---|
|-----------------------|-----------------------|
|
|  E E  E  E  E  E  Q      E E  E  E  E  E  E E
|-----------------------|-----------------------|
|-----------------------|---------10-13-10------|
|----8------------------|----8-11----------11-8-|
|-10----7-10-----7------|-----------------------|
|-------------9-----6---|-----------------------|
|-----------------------|-----------------------|
|
|  W                       W
|-----------------------|-----------------------|
|-----------------------|-----------------------|
|-----------------------|-----------------------|
|-----------------------|-----------------------|
|-----------------------|-----------------------|
|-----------------------|-----------------------|


  D7/F
  E E  E E  E E  E E   E E  E E  E E  Q
|--------------------|--------------------|
|--------9-12-9------|--------------------|
|---7-10--------10-7-|---7----------------|
|--------------------|-9----6-9----6------|
|--------------------|-----------8----5---|
|--------------------|--------------------|
|
| E E  E E  E E  Q     E E  E E  E E  E E
|--------------------|--------------------|
|--------------------|--------9-12-9------|
|---7----------------|---7-10--------10-7-|
|-9----6-9----6------|--------------------|
|-----------8----5---|--------------------|
|--------------------|--------------------|
|
| W                    W
|--------------------|--------------------|
|--------------------|--------------------|
|--------------------|--------------------|
|--------------------|--------------------|
|--------------------|--------------------|
|--------------------|--------------------|


  Am      E/B      Am/C     E         Am      E/B      Am/C     E
  S S S S  S S S S  S S S S S S S S   S S S S  S S S S  S S S S S S S S
|-5-0-0-0--7-0-0-0--8-0-0-0-4-0-0-0-|-5-0-0-0--7-0-0-0--8-0-0-0-4-0-0-0-|
|-----------------------------------|-----------------------------------|
|-----------------------------------|-----------------------------------|
|-----------------------------------|-----------------------------------|
|-----------------------------------|-----------------------------------|
|-----------------------------------|-----------------------------------|
|
| S S S S  S S S S  S S S S S S S S   S S S S  S S S S  S S S S S S S S
|-8-0-0-0-10-0-0-0-12-0-0-0-7-0-0-0-|-8-0-0-0-10-0-0-0-12-0-0-0-7-0-0-0-|
|-----------------------------------|-----------------------------------|
|-----------------------------------|-----------------------------------|
|-----------------------------------|-----------------------------------|
|-----------------------------------|-----------------------------------|
|-----------------------------------|-----------------------------------|
|
| W                                   W
|-----------------------------------|-----------------------------------|
|-----------------------------------|-----------------------------------|
|-----------------------------------|-----------------------------------|
|-----------------------------------|-----------------------------------|
|-----------------------------------|-----------------------------------|
|-----------------------------------|-----------------------------------|


  Am      E/B      Am/C     E
  S S S S  S S S S  S S S S  S S S S
|-5-0-0-0--7-0-0-0--8-0-0-0-12-0-0-0-|
|------------------------------------|
|------------------------------------|
|------------------------------------|
|------------------------------------|
|------------------------------------|
|
| S S S S  S S S S  S S S S  S S S S
|-8-0-0-0-10-0-0-0-12-0-0-0-16-0-0-0-|
|------------------------------------|
|------------------------------------|
|------------------------------------|
|------------------------------------|
|------------------------------------|
|
| W
|------------------------------------|
|------------------------------------|
|------------------------------------|
|------------------------------------|
|------------------------------------|
|------------------------------------|


              Pre-Guitar Solo
  Am           Am          F        G        E9
   W            S  S  S  S  S  S  E  S  S  S  S  S  S  E
|-17--------||-20-17----20-17S13----19-15----19-15S12----|
|-----------||-------17----------13-------15----------14-|
|-----------||-------------------------------------------|
|-----------||-------------------------------------------|
|-----------||-------------------------------------------|
|-----------||-------------------------------------------|
|
|  W            E     E     E     E  E     E     E     E
|-20--------||-------------------------------------------|
|-----------||-------------------------------------------|
|-----------||-------------------------------------------|
|-----------||--7-----7--------------5-----5-------------|
|-----------||--------------8-----8--------------7-----7-|
|-----------||-------------------------------------------|
|
|  W            W
|-----------||-------------------------------------------|
|-----------||-------------------------------------------|
|-----------||-------------------------------------------|
|-----------||-------------------------------------------|
|-----------||-------------------------------------------|
|-----------||-------------------------------------------|


  Dm/F        G9/D     A7/E        Am/C
   S  S  S  S  S  S  E  S  S  S  S  S S  E
|-17-13----17-13S10----15-12----15-12S8-----|
|-------15----------12-------14---------10--|
|-------------------------------------------|
|-------------------------------------------|
|-------------------------------------------|
|-------------------------------------------|
|
|  E     E     E     E  E     E     E    E
|-------------------------------------------|
|-------------------------------------------|
|-------------------------------------------|
|-------------------------------------------|
|--8-----8-----5-----5--7-----7-------------|
|-----------------------------------8----8--|
|
|  W
|-------------------------------------------|
|-------------------------------------------|
|-------------------------------------------|
|-------------------------------------------|
|-------------------------------------------|
|-------------------------------------------|


  A/D        G#/B  A/C     Eadd9      F#         G#        Am
   S  S  S  S  S S E  S S  E  E  S  S    S  S  S  S  S  S  S S  H
|-13-10----13-10S7---12-8----13-12-13-|-12-13-12-10------------------|
|-------12---------9------10----------|-------------13-12-10S9-10----|
|-------------------------------------|------------------------------|
|-------------------------------------|------------------------------|
|-------------------------------------|------------------------------|
|-------------------------------------|------------------------------|
|
|  E     E     E   E  E    E  E  E       E     E     E     E    H
|-------------------------------------|------------------------------|
|-------------------------------------|------------------------------|
|-------------------------------------|------------------------------|
|-------------------------------------|------------------------------|
|--5-----5----------------------------|------------------------------|
|--------------7---7--8----8--0--0----|--2-----2-----4-----4----5----|
|
|  W                                     W
|-------------------------------------|------------------------------|
|-------------------------------------|------------------------------|
|-------------------------------------|------------------------------|
|-------------------------------------|------------------------------|
|-------------------------------------|------------------------------|
|-------------------------------------|------------------------------|


  Am          F        G           E9
   S  S  S  S  S  S  E  S  S  S  S  S  S  E
|-20-17----20-17S13----19-15----19-15S12----|
|-------17----------13-------15----------14-|
|-------------------------------------------|
|-------------------------------------------|
|-------------------------------------------|
|-------------------------------------------|
|
|  E     E     E     E  E     E     E     E
|-------------------------------------------|
|-------------------------------------------|
|-------------------------------------------|
|--7-----7--------------5-----5-------------|
|--------------8-----8--------------7-----7-|
|-------------------------------------------|
|
|  W
|-------------------------------------------|
|-------------------------------------------|
|-------------------------------------------|
|-------------------------------------------|
|-------------------------------------------|
|-------------------------------------------|


  Dm/F        G9/D     A7/E        Am/C
   S  S  S  S  S  S  E  S  S  S  S  S S  E
|-17-13----17-13S10----15-12----15-12S8----|
|-------15----------12-------14---------10-|
|------------------------------------------|
|------------------------------------------|
|------------------------------------------|
|------------------------------------------|
|
|  E     E     E     E  E     E     E    E
|------------------------------------------|
|------------------------------------------|
|------------------------------------------|
|------------------------------------------|
|--8-----8-----5-----5--7-----7------------|
|-----------------------------------8----8-|
|
|  W
|------------------------------------------|
|------------------------------------------|
|------------------------------------------|
|------------------------------------------|
|------------------------------------------|
|------------------------------------------|


  A/D        G#/B  A/C        Eadd9    F#         G#        Am
   S  S  S  S  S S E  S S  S  S  +Q       S  S  S  S  S  S  S S  H
|-13-10----13-10S7---12-8----13-(13)---|-12-13-12-10------------------|
|-------12---------9------10-----------|-------------12-13-12-9-10----|
|--------------------------------------|------------------------------|
|--------------------------------------|------------------------------|
|--------------------------------------|------------------------------|
|--------------------------------------|------------------------------|
|
|  E     E     E   E  E    E      E  E    E     E     E     E    H
|--------------------------------------|------------------------------|
|--------------------------------------|------------------------------|
|--------------------------------------|------------------------------|
|--------------------------------------|------------------------------|
|--5-----5-----------------------------|------------------------------|
|--------------7---7--8----8------0--0-|--2-----2-----4-----4----5----|
|
|  W                                      W
|--------------------------------------|------------------------------|
|--------------------------------------|------------------------------|
|--------------------------------------|------------------------------|
|--------------------------------------|------------------------------|
|--------------------------------------|------------------------------|
|--------------------------------------|------------------------------|


  Am      B         A/C        D             E           F#         G#         Am
  S S S S  S  S S  S  S S  S  S  S  S  S  S    S  S  S  S  S  S  S  S  S  S  S  S  S  S  S  S
|-8-5-7-8S10--7-8-10S12-8-10-12S14-10-12-14S|=16-12-14-16S17-14-16-17S19-16-17-19S20-20-19-17-|
|-------------------------------------------|-------------------------------------------------|
|-------------------------------------------|-------------------------------------------------|
|-------------------------------------------|-------------------------------------------------|
|-------------------------------------------|-------------------------------------------------|
|-------------------------------------------|-------------------------------------------------|
|
| q        q          q          q             q           q           q           q
|-------------------------------------------|-------------------------------------------------|
|-------------------------------------------|-------------------------------------------------|
|-------------------------------------------|-------------------------------------------------|
|-------------------------------------------|--------------------------6-----------7----------|
|--------------------------------5----------|--7-----------9----------------------------------|
|-5--------7----------8---------------------|-------------------------------------------------|
|
| q        H.                                  W
|-5-----------------------------------------|-------------------------------------------------|
|-5-----------------------------------------|-------------------------------------------------|
|-5-----------------------------------------|-------------------------------------------------|
|-7-----------------------------------------|-------------------------------------------------|
|-------------------------------------------|-------------------------------------------------|
|-------------------------------------------|-------------------------------------------------|


  B          A/C         D           E
   S  S  S  S  S  S  S  S  S  S  S  S  S  S  S  S
|-------------------------------------------------|
|-18-17-15----------------------------------------|
|----------17-16-14-------------------------------|
|-------------------15-14-12----------------------|
|----------------------------15-14-12S11-12-14-11-|
|-------------------------------------------------|
|
|  q           q           q           q
|-------------------------------------------------|
|-------------------------------------------------|
|--------------5-----------7-----------9----------|
|--9----------------------------------------------|
|-------------------------------------------------|
|-------------------------------------------------|
|
|  W
|-------------------------------------------------|
|-------------------------------------------------|
|-------------------------------------------------|
|-------------------------------------------------|
|-------------------------------------------------|
|-------------------------------------------------|


  Am               Am        B         Am/C       D
   Q.    E  H       S  S S S  S  S S  S  S S  S  S  S  S  S  S
|----------------|--8--5-7-8S10--7-8-10S12-8-10-12S14-10-12-14S|
|----------------|---------------------------------------------|
|----------------|---------------------------------------------|
|----------------|---------------------------------------------|
|-12----11-12----|---------------------------------------------|
|----------------|---------------------------------------------|
|
|  Q.    E  H       q         q          q          q
|----------------|---------------------------------------------|
|----------------|---------------------------------------------|
|--9-----5-------|---------------------------------------------|
|-----------7----|---------------------------------------------|
|----------------|----------------------------------5----------|
|----------------|--5---------7----------8---------------------|
|
|  W               +q         H.
|--5-------------|-(5)-----------------------------------------|
|--5-------------|-(5)-----------------------------------------|
|--5-------------|-(5)-----------------------------------------|
|--7-------------|-(7)-----------------------------------------|
|----------------|---------------------------------------------|
|----------------|---------------------------------------------|


  E           F#         G#         Am
   S  S  S  S  S  S  S  S  S  S  S  S  S  S  S  S
|-16-12-14-16S17-14-16-17S19-16-17-19S20-20-19-17---|
|---------------------------------------------------|
|---------------------------------------------------|
|---------------------------------------------------|
|---------------------------------------------------|
|---------------------------------------------------|
|
|  q           q           q           q
|---------------------------------------------------|
|---------------------------------------------------|
|---------------------------------------------------|
|--------------------------6-----------7------------|
|--7-----------9------------------------------------|
|---------------------------------------------------|
|
|  W
|---------------------------------------------------|
|---------------------------------------------------|
|---------------------------------------------------|
|---------------------------------------------------|
|---------------------------------------------------|
|---------------------------------------------------|


  B          Am/C        D           E
   S  S  S  S  S  S  S  S  S  S  S  S  S  S  S  S
|-------------------------------------------------|
|-18-17-15----------------------------------------|
|----------17-16-14-------------------------------|
|-------------------15-14-12----------------------|
|----------------------------15-14-12S11-12-14-11-|
|-------------------------------------------------|
|
|  q           q           q           q
|-------------------------------------------------|
|-------------------------------------------------|
|--------------5-----------7-----------9----------|
|--9----------------------------------------------|
|-------------------------------------------------|
|-------------------------------------------------|
|
|  W
|-------------------------------------------------|
|-------------------------------------------------|
|-------------------------------------------------|
|-------------------------------------------------|
|-------------------------------------------------|
|-------------------------------------------------|


  Am
       |-----5-----|                     |--4:3---|
   E.  S  S  S  S  S  S  +H        +Q    Q  Q  Q  Q
|-----------------12-17-(17)----|-(17)--17-17-17-17---|
|--------------13---------------|---------------------|
|-----------14------------------|---------------------|
|--------14---------------------|---------------------|
|-12--15------------------------|---------------------|
|-------------------------------|---------------------|
|
|  W                               +W
|-------------------------------|---------------------|
|-------------------------------|---------------------|
|-14----------------------------|-(14)----------------|
|-------------------------------|---------------------|
|-------------------------------|---------------------|
|-------------------------------|---------------------|
|
|  W                               +W
|--5----------------------------|--(5)----------------|
|--5----------------------------|--(5)----------------|
|--5----------------------------|--(5)----------------|
|--7----------------------------|--(7)----------------|
|-------------------------------|---------------------|
|-------------------------------|---------------------|


                        Guitar Solo (I)
                         C#m
    |--3---|
    Q   Q  Q  +H         Q   E  E  +H        E   S  S  S  S  S  S  H
|--17--17-17-(17)-----||----21-21-(21)----|-----21-19-17----------19b21----|
|---------------------||------------------|--------------21-19-17----------|
|---------------------||------------------|--------------------------------|
|---------------------||------------------|--------------------------------|
|---------------------||------------------|--------------------------------|
|---------------------||------------------|--------------------------------|
|
|  +W                    W                  +W
|---------------------||------------------|--------------------------------|
|---------------------||------------------|--------------------------------|
|-(14)----------------||-6----------------|-(6)----------------------------|
|---------------------||-6----------------|-(6)----------------------------|
|---------------------||-4----------------|-(4)----------------------------|
|---------------------||------------------|--------------------------------|
|
|  +W                    W                  +W
|--(5)----------------||-4----------------|-(4)----------------------------|
|--(5)----------------||-5----------------|-(5)----------------------------|
|--(5)----------------||-6----------------|-(6)----------------------------|
|--(7)----------------||-6----------------|-(6)----------------------------|
|---------------------||------------------|--------------------------------|
|---------------------||------------------|--------------------------------|


  B/C#
   S  S  S  S  S  S  S  S  S  S  S  S  S  S  S  S
|-21-19-17S16-19-17-16S14-17-16-14S12-16-14-12S11-|
|-------------------------------------------------|
|-------------------------------------------------|
|-------------------------------------------------|
|-------------------------------------------------|
|-------------------------------------------------|
|
|  W
|-------------------------------------------------|
|-------------------------------------------------|
|--4----------------------------------------------|
|--4----------------------------------------------|
|--4----------------------------------------------|
|-------------------------------------------------|
|
|  W
|--2----------------------------------------------|
|--4----------------------------------------------|
|--4----------------------------------------------|
|--4----------------------------------------------|
|-------------------------------------------------|
|-------------------------------------------------|


                                   C#m
                                                     |-----3------|
   S   S  S S  S  S S S  H          +H         E  E  E     E      E
|-14--12-11S9-12-11-9S7----------|-----------------------------------|
|-----------------------12b14r===|=(12)b14----14-12-12b14------------|
|--------------------------------|------------------------11pb13r11--|
|--------------------------------|-----------------------------------|
|--------------------------------|-----------------------------------|
|--------------------------------|-----------------------------------|
|
| +W                                 W
|--------------------------------|-----------------------------------|
|--------------------------------|-----------------------------------|
|-(4)----------------------------|---6-------------------------------|
|-(4)----------------------------|---6-------------------------------|
|-(4)----------------------------|---4-------------------------------|
|--------------------------------|-----------------------------------|
|
| +W                                 W
|-(2)----------------------------|---4-------------------------------|
|-(4)----------------------------|---5-------------------------------|
|-(4)----------------------------|---6-------------------------------|
|-(4)----------------------------|---6-------------------------------|
|--------------------------------|-----------------------------------|
|--------------------------------|-----------------------------------|


                               B/C#
   E   E  E  S S  E  S  S Q     S  S  Q   +Q   E E  E    E   E Q  E  E Q
|----------------------------|------------------------|-------------------|
|--------12------------------|------------------------|-------------------|
|-12--11----11-9----13-11-9--|------------------------|-----------9----9--|
|----------------11----------|-13-11-13--(13)--9------|--9-----9----11----|
|----------------------------|-------------------9-11-|-----11------------|
|----------------------------|------------------------|-------------------|
|
| +W                            W                       +W
|----------------------------|------------------------|-------------------|
|----------------------------|------------------------|-------------------|
|-(6)------------------------|--4---------------------|-(4)---------------|
|-(6)------------------------|--4---------------------|-(4)---------------|
|-(4)------------------------|--4---------------------|-(4)---------------|
|----------------------------|------------------------|-------------------|
|
| +W                            W                       +W
|-(4)------------------------|--2---------------------|-(2)---------------|
|-(5)------------------------|--4---------------------|-(4)---------------|
|-(6)------------------------|--4---------------------|-(4)---------------|
|-(6)------------------------|--4---------------------|-(4)---------------|
|----------------------------|------------------------|-------------------|
|----------------------------|------------------------|-------------------|


  C#m
  +Q.    T  T  T  T  E.  S  +E.  +T   T    E   E  E  E  H
|-------------12-16---------------------|-----------21-21----|
|----------14-------14--17-(17)-(17)s21-|--------------------|
|-(9)---13------------------------------|-16-----18----------|
|---------------------------------------|--------------------|
|---------------------------------------|-----16-------------|
|---------------------------------------|--------------------|
|
|  W                                      +W
|---------------------------------------|--------------------|
|---------------------------------------|--------------------|
|--6------------------------------------|-(6)----------------|
|--6------------------------------------|-(6)----------------|
|--4------------------------------------|-(4)----------------|
|---------------------------------------|--------------------|
|
|  W                                      +W
|--4------------------------------------|-(4)----------------|
|--5------------------------------------|-(5)----------------|
|--6------------------------------------|-(6)----------------|
|--6------------------------------------|-(6)----------------|
|---------------------------------------|--------------------|
|---------------------------------------|--------------------|


  B/C#
   |------6-------|  |------6-------|
   S  S  S  S  S  S  S  S  S  S  S  S  S  S  S  S  S  S  S  S
|-21-19-17-------------16-17-16-14----------------------------|
|----------21-19-17-16-------------17-16-14----------16-14-13-|
|-------------------------------------------16-14-13----------|
|-------------------------------------------------------------|
|-------------------------------------------------------------|
|-------------------------------------------------------------|
|
|  W
|-------------------------------------------------------------|
|-------------------------------------------------------------|
|--4----------------------------------------------------------|
|--4----------------------------------------------------------|
|--4----------------------------------------------------------|
|-------------------------------------------------------------|
|
|  W
|--2----------------------------------------------------------|
|--4----------------------------------------------------------|
|--4----------------------------------------------------------|
|--4----------------------------------------------------------|
|-------------------------------------------------------------|
|-------------------------------------------------------------|


                                            A/C#
   S   S  S  S  S  S  S  S  E  E  S  S  E   S S S S  S S S  S  S S S  S  S  S  S  S
|-----------------------------------------|-9-5-7-9S11-7-9-11S12-7-9-12S14-11-12-14S|
|-----------------------------------------|-----------------------------------------|
|-14--13-11----14-13-11----------11-13-14-|-----------------------------------------|
|-----------13----------13-13-13----------|-----------------------------------------|
|-----------------------------------------|-----------------------------------------|
|-----------------------------------------|-----------------------------------------|
|
| +W                                        W
|-----------------------------------------|-----------------------------------------|
|-----------------------------------------|-----------------------------------------|
|-(4)-------------------------------------|-2---------------------------------------|
|-(4)-------------------------------------|-2---------------------------------------|
|-(4)-------------------------------------|-4---------------------------------------|
|-----------------------------------------|-----------------------------------------|
|
| +W                                        W
|-(2)-------------------------------------|-0---------------------------------------|
|-(4)-------------------------------------|-2---------------------------------------|
|-(4)-------------------------------------|-2---------------------------------------|
|-(4)-------------------------------------|-2---------------------------------------|
|-----------------------------------------|-----------------------------------------|
|-----------------------------------------|-----------------------------------------|


                                        |--3--|
   S   S  S  S  S  S  S  S  S  S  S  S  S  S  S
|-16--12-14-16S17-14-16-17S19-16-17-19S21-19-17----|
|--------------------------------------------------|
|--------------------------------------------------|
|--------------------------------------------------|
|--------------------------------------------------|
|--------------------------------------------------|
|
| +W
|--------------------------------------------------|
|--------------------------------------------------|
|-(2)----------------------------------------------|
|-(2)----------------------------------------------|
|-(4)----------------------------------------------|
|--------------------------------------------------|
|
| +W
|-(0)----------------------------------------------|
|-(2)----------------------------------------------|
|-(2)----------------------------------------------|
|-(2)----------------------------------------------|
|--------------------------------------------------|
|--------------------------------------------------|


  B/C#
   |-----5-----|  |------6-------|
   S  S  S  S  S  S  S  S  S  S  S  S  S  S  S  +S   S   E
|-21-19-17S16-19-17-16S14-17-16-14S12-14-16-12-(12)s21\-12-|
|----------------------------------------------------------|
|----------------------------------------------------------|
|----------------------------------------------------------|
|----------------------------------------------------------|
|----------------------------------------------------------|
|
|  W
|----------------------------------------------------------|
|----------------------------------------------------------|
|--4-------------------------------------------------------|
|--4-------------------------------------------------------|
|--4-------------------------------------------------------|
|----------------------------------------------------------|
|
|  W
|--2-------------------------------------------------------|
|--4-------------------------------------------------------|
|--4-------------------------------------------------------|
|--4-------------------------------------------------------|
|----------------------------------------------------------|
|----------------------------------------------------------|


                          Guitar Solo (II)
                           E
                                         T        T        T
                                         |-------7:3-------|
   H.         +E   E        +H      +E   E  E  E  E  E  E  E
|-22b24------(22)-------||-------------------------------------|
|-----------------15b17-||-(15)----(15)-21p15h17-21p15h17-21p==|
|-----------------------||-------------------------------------|
|-----------------------||-------------------------------------|
|-----------------------||-------------------------------------|
|-----------------------||-------------------------------------|
|
| +W                         W
|-----------------------||-------------------------------------|
|-----------------------||-------------------------------------|
|-(4)-------------------||---9---------------------------------|
|-(4)-------------------||---9---------------------------------|
|-(4)-------------------||---7---------------------------------|
|-----------------------||-------------------------------------|
|
| +W                         W
|-(2)-------------------||---4---------------------------------|
|-(4)-------------------||---5---------------------------------|
|-(4)-------------------||---4---------------------------------|
|-(4)-------------------||---6---------------------------------|
|-----------------------||-------------------------------------|
|-----------------------||-------------------------------------|


                                         Am/E
          T        T        T
   |-----------9------------|               |--3--|
   E   E  E  E  E  E  E  E  E  H         E  S  S  S  S  S  S  S  S  S  S  S  Q
|--------------------------------------|------------------------------------22b24--|
|-15h=17-21p15h17-21p15h17-21-15b17----|------------15-17-18-17-15-----------------|
|--------------------------------------|---14-16-17----------------17-16-14--------|
|--------------------------------------|-------------------------------------------|
|--------------------------------------|-------------------------------------------|
|--------------------------------------|-------------------------------------------|
|
| +W                                     W
|--------------------------------------|-------------------------------------------|
|--------------------------------------|-------------------------------------------|
|-(9)----------------------------------|-9-----------------------------------------|
|-(9)----------------------------------|-7-----------------------------------------|
|-(7)----------------------------------|-7-----------------------------------------|
|--------------------------------------|-------------------------------------------|
|
| +W                                     W
|-(4)----------------------------------|-5-----------------------------------------|
|-(5)----------------------------------|-5-----------------------------------------|
|-(4)----------------------------------|-5-----------------------------------------|
|-(6)----------------------------------|-7-----------------------------------------|
|--------------------------------------|-------------------------------------------|
|--------------------------------------|-------------------------------------------|


   E   S  S  S  S  S  S  Q      S  S  S  S
|-----------------------22b24----------------|
|-----18-17-15-----------------18-17-15------|
|--------------17-16-14-----------------17---|
|--------------------------------------------|
|--------------------------------------------|
|--------------------------------------------|
|
| +W
|--------------------------------------------|
|--------------------------------------------|
|-(9)----------------------------------------|
|-(7)----------------------------------------|
|-(7)----------------------------------------|
|--------------------------------------------|
|
| +W
|-(5)----------------------------------------|
|-(5)----------------------------------------|
|-(5)----------------------------------------|
|-(7)----------------------------------------|
|--------------------------------------------|
|--------------------------------------------|


  E
   S  S  E     +Q    +H        +E  E E  S  S  S  S  S  S  S  S  S  S
|-------22b24-(22)--(22)----|-(22)-----19-17-16S13-17-16-13S12-16-13-|
|---------------------------|----------------------------------------|
|-16-14---------------------|----------------------------------------|
|---------------------------|----------------------------------------|
|---------------------------|----------------------------------------|
|---------------------------|----------------------------------------|
|
|  W                           +W
|---------------------------|----------------------------------------|
|---------------------------|----------------------------------------|
|--9------------------------|--(9)-----------------------------------|
|--9------------------------|--(9)-----------------------------------|
|--7------------------------|--(7)-----------------------------------|
|---------------------------|----------------------------------------|
|
|  W                           +W
|--4------------------------|--(4)-----------------------------------|
|--5------------------------|--(5)-----------------------------------|
|--4------------------------|--(4)-----------------------------------|
|--6------------------------|--(6)-----------------------------------|
|---------------------------|----------------------------------------|
|---------------------------|----------------------------------------|


  Am/E
   S  S  S  S  S S  S  S S S  S S S S  S  S
|-12S10-13-12-10S8-12-10-8S7-10-8-7S8-10-12S==|
|---------------------------------------------|
|---------------------------------------------|
|---------------------------------------------|
|---------------------------------------------|
|---------------------------------------------|
|
|  W
|---------------------------------------------|
|---------------------------------------------|
|--9------------------------------------------|
|--7------------------------------------------|
|--7------------------------------------------|
|---------------------------------------------|
|
|  W
|--5------------------------------------------|
|--5------------------------------------------|
|--5------------------------------------------|
|--7------------------------------------------|
|---------------------------------------------|
|---------------------------------------------|


                             E
                      TP
   |--3---|  |--3--|
   S   S  S  S  S  S  H       S  S  S  S  S  S  S  S  S  S  S  S  S  S  S  S
|-13--12-10----------------|-------------------------------------------------|
|-----------13-12-10S17----|-18-17-15----------------------------------------|
|--------------------------|----------17-16-14S13-14-16-14-13----------------|
|--------------------------|----------------------------------15-14-13-14-15-|
|--------------------------|-------------------------------------------------|
|--------------------------|-------------------------------------------------|
|
| +W                          W
|--------------------------|-------------------------------------------------|
|--------------------------|-------------------------------------------------|
|-(9)----------------------|--9----------------------------------------------|
|-(7)----------------------|--9----------------------------------------------|
|-(7)----------------------|--7----------------------------------------------|
|--------------------------|-------------------------------------------------|
|
| +W                          W
|-(5)----------------------|--4----------------------------------------------|
|-(5)----------------------|--5----------------------------------------------|
|-(5)----------------------|--4----------------------------------------------|
|-(7)----------------------|--6----------------------------------------------|
|--------------------------|-------------------------------------------------|
|--------------------------|-------------------------------------------------|


   S   S  S  S  S  S S  S  S S  S S S  S  S S
|---------------------------------------------|
|---------------------------------------------|
|---------------------------------------------|
|-14--12S10-14-12-10S9-12-10-9--------12-10-9-|
|------------------------------11-8-7---------|
|---------------------------------------------|
|
| +W
|---------------------------------------------|
|---------------------------------------------|
|-(9)-----------------------------------------|
|-(9)-----------------------------------------|
|-(7)-----------------------------------------|
|---------------------------------------------|
|
| +W
|-(4)-----------------------------------------|
|-(5)-----------------------------------------|
|-(4)-----------------------------------------|
|-(6)-----------------------------------------|
|---------------------------------------------|
|---------------------------------------------|


  Am/E
               |--3--| |-3--|
   S  S  S  S  S  S  S S  S S S S S  S    S  S  S S S  S  S S  S  S  S  S  S  S  S  S
|--------------------------------------|----------------------------------------------|
|--------------------------------------|----------------------------------------------|
|--------------------------------------|--------------------9-10-12----------10-12-13S|
|--------------------------------------|--7--9-10-7-9-10S12---------10-12-14----------|
|-12-11-12-14-11-12-11S8-11-8S7-7-8-11-|----------------------------------------------|
|--------------------------------------|----------------------------------------------|
|
|  W                                     +W
|--------------------------------------|----------------------------------------------|
|--------------------------------------|----------------------------------------------|
|--9-----------------------------------|-(9)------------------------------------------|
|--7-----------------------------------|-(7)------------------------------------------|
|--7-----------------------------------|-(7)------------------------------------------|
|--------------------------------------|----------------------------------------------|
|
|  W                                     +W
|--5-----------------------------------|-(5)------------------------------------------|
|--5-----------------------------------|-(5)------------------------------------------|
|--5-----------------------------------|-(5)------------------------------------------|
|--7-----------------------------------|-(7)------------------------------------------|
|--------------------------------------|----------------------------------------------|
|--------------------------------------|----------------------------------------------|


  E
   S  S  S  S  S  S  S  S  S  S  S  S  S  S  S  S
|---------------------------------------------------|
|---------------------------------------------------|
|-14-12-13-14S16-13-14-16S17-14-16-17S19-16-17-19---|
|---------------------------------------------------|
|---------------------------------------------------|
|---------------------------------------------------|
|
|  W
|---------------------------------------------------|
|---------------------------------------------------|
|--9------------------------------------------------|
|--9------------------------------------------------|
|--7------------------------------------------------|
|---------------------------------------------------|
|
|  W
|--4------------------------------------------------|
|--5------------------------------------------------|
|--4------------------------------------------------|
|--6------------------------------------------------|
|---------------------------------------------------|
|---------------------------------------------------|


                                                    Am/E
   S  S  S  S  S  S  S  S  S  S  S  S  S  S  S  S    S  S  S  S  S  S  S  S  S  S  S  S  S  S  S  S
|-12--8-10-12S13-10-12-13S16-12-13-16S17-16-17-19S|=20-17-19S20-19-17-19-17-19-20-19-17-19-17-19-20-|
|-------------------------------------------------|-------------------------------------------------|
|-------------------------------------------------|-------------------------------------------------|
|-------------------------------------------------|-------------------------------------------------|
|-------------------------------------------------|-------------------------------------------------|
|-------------------------------------------------|-------------------------------------------------|
|
| +W                                                 W
|-------------------------------------------------|-------------------------------------------------|
|-------------------------------------------------|-------------------------------------------------|
|-(9)---------------------------------------------|--9----------------------------------------------|
|-(9)---------------------------------------------|--7----------------------------------------------|
|-(7)---------------------------------------------|--7----------------------------------------------|
|-------------------------------------------------|-------------------------------------------------|
|
| +W                                                 W
|-(4)---------------------------------------------|--5----------------------------------------------|
|-(5)---------------------------------------------|--5----------------------------------------------|
|-(4)---------------------------------------------|--5----------------------------------------------|
|-(6)---------------------------------------------|--7----------------------------------------------|
|-------------------------------------------------|-------------------------------------------------|
|-------------------------------------------------|-------------------------------------------------|


   S   S  S  S  S  S  S  S  S  S  S  S  S  S     S     S
|-19--17-19-17-19-20-19-17-19-17-19-20-19-17----19----17---|
|----------------------------------------------------------|
|----------------------------------------------------------|
|----------------------------------------------------------|
|----------------------------------------------------------|
|----------------------------------------------------------|
|
|                                       |-----3-----|
| +H.                                   S     S     S
|----------------------------------------------------------|
|----------------------------------------------------------|
|-(9)----------------------------------17----16----14S=====|
|-(7)------------------------------------------------------|
|-(7)------------------------------------------------------|
|----------------------------------------------------------|
|
| +W
|-(5)------------------------------------------------------|
|-(5)------------------------------------------------------|
|-(5)------------------------------------------------------|
|-(7)------------------------------------------------------|
|----------------------------------------------------------|
|----------------------------------------------------------|


 Intro Theme
  E                               Am
                                              |--3--|
   H         +E   Q.               +H.        S  S  S
|-22b24=====(22)-22b24----------|-(22)r---------------|
|-------------------------------|------------17-18-20S|
|-------------------------------|---------------------|
|-------------------------------|---------------------|
|-------------------------------|---------------------|
|-------------------------------|---------------------|
|
|                       |--3--|               |--3--|
|  H.                   S  S  S     H.        S  S  S
|-------------------------------|---------------------|
|-------------------------------|---------------------|
|-13-------------------13-14-16-|--14--------17-19-21S|
|-------------------------------|---------------------|
|-------------------------------|---------------------|
|-------------------------------|---------------------|
|
|  W                                W
|-------------------------------|---------------------|
|--9----------------------------|--10-----------------|
|--9----------------------------|---9-----------------|
|--9----------------------------|--10-----------------|
|--7----------------------------|---7-----------------|
|-------------------------------|---------------------|


  Dm                  C
            |--3--|             |--3--|
   H.       S  S  S    H.       S  S  S
|-------------------|-------------------|
|-22-------18-20-22-|-20-------17-18-20-|
|-------------------|-------------------|
|-------------------|-------------------|
|-------------------|-------------------|
|-------------------|-------------------|
|
|           |--3--|             |--3--|
|  H.       S  S  S    H.       S  S  S
|-------------------|-------------------|
|-------------------|-------------------|
|-22-------19-21-22-|-21-------17-19-21-|
|-------------------|-------------------|
|-------------------|-------------------|
|-------------------|-------------------|
|
|  W                   W
|-------------------|-------------------|
|--6----------------|--5----------------|
|--7----------------|--5----------------|
|--7----------------|--5----------------|
|--5----------------|--3----------------|
|-------------------|-------------------|


  D7/G#                 Am
               |--3--|             |--3--|
   H.          S  S  S    H.       S  S  S
|----------------------|-------------------|
|-18tr20------15-17-18-|-17-------13-15-17-|
|----------------------|-------------------|
|----------------------|-------------------|
|----------------------|-------------------|
|----------------------|-------------------|
|
|              |--3--|             |--3--|
|  H.          S  S  S    H.       S  S  S
|----------------------|-------------------|
|----------------------|-------------------|
|-19tr21------16-17-19-|-17-------14-16-17-|
|----------------------|-------------------|
|----------------------|-------------------|
|----------------------|-------------------|
|
|  W                      W
|----------------------|-------------------|
|--6-------------------|--5----------------|
|--4-------------------|--5----------------|
|--6-------------------|--7----------------|
|--5-------------------|--7----------------|
|----------------------|-------------------|


  E7/G# E              Am
               |--3--|             |--3--|
   H     +Q    S  S  S    H.       S  S  S
|----------------------|--------------------|
|-15----(15)--12-13-15-|-13-------17-15-13--|
|----------------------|--------------------|
|----------------------|--------------------|
|----------------------|--------------------|
|----------------------|--------------------|
|
|              |--3--|             |--3--|
|  H     +Q    S  S  S    H.       S  S  S
|----------------------|--------------------|
|----------------------|--------------------|
|-16----(16)--13-14-16-|-14-------17-16-14S=|
|----------------------|--------------------|
|----------------------|--------------------|
|----------------------|--------------------|
|
|  W                      W
|----------------------|--------------------|
|--5-------------------|--5-----------------|
|--4-------------------|--5-----------------|
|--6-------------------|--7-----------------|
|--7-------------------|--7-----------------|
|----------------------|--------------------|


  E                   Am
            |--3--|             |--3--|
   H.       S  S  S    H.       S  S  S
|-------------------|-------------------|
|-12-------12-13-15-|-13-------17-18-20S|
|-------------------|-------------------|
|-------------------|-------------------|
|-------------------|-------------------|
|-------------------|-------------------|
|
|           |--3--|             |--3--|
|  H.       S  S  S    H.       S  S  S
|-------------------|-------------------|
|-------------------|-------------------|
|-13-------13-14-16-|-14-------17-19-21S|
|-------------------|-------------------|
|-------------------|-------------------|
|-------------------|-------------------|
|
|  W                   W
|-------------------|-------------------|
|--9----------------|-10----------------|
|--9----------------|--9----------------|
|--9----------------|-10----------------|
|--7----------------|--7----------------|
|-------------------|-------------------|


  Dm                  C
            |--3--|             |--3--|
   H.       S  S  S    H.       S  S  S
|-------------------|-------------------|
|-22-------18-20-22-|-20-------17-18-20-|
|-------------------|-------------------|
|-------------------|-------------------|
|-------------------|-------------------|
|-------------------|-------------------|
|
|           |--3--|             |--3--|
|  H.       S  S  S    H.       S  S  S
|-------------------|-------------------|
|-------------------|-------------------|
|-22-------19-21-22-|-21-------17-19-21-|
|-------------------|-------------------|
|-------------------|-------------------|
|-------------------|-------------------|
|
|  W                   W
|-------------------|-------------------|
|--6----------------|--5----------------|
|--7----------------|--5----------------|
|--7----------------|--5----------------|
|--5----------------|--3----------------|
|-------------------|-------------------|


  D7/B  D7/G#           Am
                |--3--|                |--3--|
   H      +Q    S  S  S    H.          S  S  S
|-----------------------|----------------------|
|-18-----(18)--15-17-18-|-17tr18------13-15-17-|
|-----------------------|----------------------|
|-----------------------|----------------------|
|-----------------------|----------------------|
|-----------------------|----------------------|
|
|               |--3--|                |--3--|
|  H.           S  S  S    H.          S  S  S
|-----------------------|----------------------|
|-----------------------|----------------------|
|-19-----------16-17-19-|-17tr19------14-16-17-|
|-----------------------|----------------------|
|-----------------------|----------------------|
|-----------------------|----------------------|
|
|  W                       W
|-----------------------|----------------------|
|--6--------------------|--5-------------------|
|--4--------------------|--5-------------------|
|--6--------------------|--7-------------------|
|--5--------------------|--7-------------------|
|-----------------------|----------------------|


  E                      Am
               |--3--|
   H.          S  S  S    W
|----------------------|----------------------------|
|-15tr17------12-13-15-|-13-------------------------|
|----------------------|----------------------------|
|----------------------|----------------------------|
|----------------------|----------------------------|
|----------------------|----------------------------|
|
|              |--3--|
|  H.          S  S  S    H         +Q.        +E
|----------------------|----------------------------|
|----------------------|----------------------------|
|-16----------13-14-16-|-14tr16----(14tr16)---(14)--|
|----------------------|----------------------------|
|----------------------|----------------------------|
|----------------------|----------------------------|
|
|  W                      W
|----------------------|----------------------------|
|--5-------------------|--5-------------------------|
|--4-------------------|--5-------------------------|
|--6-------------------|--7-------------------------|
|--7-------------------|--7-------------------------|
|----------------------|----------------------------|


  E
  S S S S S  S S S  S S S  S  S S  S  S
|-7-4-5-7S8--5-7-8S10-7-8-10S12-8-10-12S|
|---------------------------------------|
|---------------------------------------|
|---------------------------------------|
|---------------------------------------|
|---------------------------------------|
|
| S S S S S  S S S  S S S  S  S S  S  S
|-7-4-5-7S8--5-7-8S10-7-8-10S12-8-10-12S|
|---------------------------------------|
|---------------------------------------|
|---------------------------------------|
|---------------------------------------|
|---------------------------------------|
|
| Q       H.
|---------------------------------------|
|-9-------------------------------------|
|-9-------------------------------------|
|-9-------------------------------------|
|-7-------------------------------------|
|---------------------------------------|


   S  S  S  S  S   S  S  S  S  S  S  S  S  S  S  S
|-14-10-12-14S16--12-14-16S17-14-16-17S19-16-17-19S=|
|---------------------------------------------------|
|---------------------------------------------------|
|---------------------------------------------------|
|---------------------------------------------------|
|---------------------------------------------------|
|
|  S  S  S  S  S   S  S  S  S  S  S  S  S  S  S  S
|-14-10-12-14S16--12-14-16S17-14-16-17S19-16-17-19S=|
|---------------------------------------------------|
|---------------------------------------------------|
|---------------------------------------------------|
|---------------------------------------------------|
|---------------------------------------------------|
|
|  Q           H.
|---------------------------------------------------|
|--9------------------------------------------------|
|--9------------------------------------------------|
|--9------------------------------------------------|
|--7------------------------------------------------|
|---------------------------------------------------|


                                                     Am
                                                          |-----5-----|
   S  S  S  S  S   S  S  S  S  S  S  S  S  S  S  S    Q   S  S  S  S  S  H
|-20-19-17-----------------------------------------|-----------------12-17----||
|----------18-17--15-------------------------------|--------------13----------||
|--------------------17-16-14----------------------|-----------14-------------||
|-----------------------------15-14-12-------------|--------14----------------||
|--------------------------------------15-14-12S11-|-12--15-------------------||
|--------------------------------------------------|--------------------------||
|
|                                                         |-----5-----|
|  S  S  S  S  S   S  S  S  S  S  S  S  S  S  S  S    Q   S  S  S  S  S  H
|-20-19-17-----------------------------------------|-----------------12-17----||
|----------18-17--15-------------------------------|--------------13----------||
|--------------------17-16-14----------------------|-----------14-------------||
|-----------------------------15-14-12-------------|--------14----------------||
|--------------------------------------15-14-12S11-|-12--15-------------------||
|--------------------------------------------------|--------------------------||
|
|  Q           H.                                     W
|--------------------------------------------------|--------------------------||
|--9-----------------------------------------------|-10-----------------------||
|--9-----------------------------------------------|--9-----------------------||
|--9-----------------------------------------------|-10-----------------------||
|--7-----------------------------------------------|--7-----------------------||
|--------------------------------------------------|--------------------------||


 Theme I
  Am                E7/B               Am/C             E/G
   |--3--|  |--3--| |--3--|  |--3--|    |--3--|  |-3--| |--3--|  |-3--|
   S  S  S  S  S  S S  S  S  S  S  S    S  S  S  S S  S S  S  S  S S  S
|----------10-12-13---13-12-10-------|----12-10-12-8-12-7-12----12---12-|
|-10-12-13----------9----------13-12-|-10--------------------10----9----|
|------------------------------------|----------------------------------|
|------------------------------------|----------------------------------|
|------------------------------------|----------------------------------|
|------------------------------------|----------------------------------|
|
|  |--3--|  |--3--| |--3--|  |--3--|    |--3--|  |-3--| |--3--|  |-3--|
|  S  S  S  S  S  S S  S  S  S  S  S    S  S  S  S S  S S  S  S  S S  S
|----------10-12-13---13-12-10-------|----12-10-12-8-12-7-12----12---12-|
|-10-12-13----------9----------13-12-|-10--------------------10----9----|
|------------------------------------|----------------------------------|
|------------------------------------|----------------------------------|
|------------------------------------|----------------------------------|
|------------------------------------|----------------------------------|
|
|  W                                    W
|------------------------------------|----------------------------------|
|------------------------------------|----------------------------------|
|------------------------------------|----------------------------------|
|------------------------------------|----------------------------------|
|------------------------------------|----------------------------------|
|------------------------------------|----------------------------------|


  Am                E7/B               Am/C              A/C
   |--3--|  |--3--| |--3--|  |--3--|    |--3--|  |--3--|  |--3--|  |--3--|
   S  S  S  S  S  S S  S  S  S  S  S    S  S  S  S  S  S  S  S  S  S  S  S
|----------10-12-13---13-12-10-------|----17-15-13----------------13-15-17----|
|-10-12-13----------9----------13-12-|-10----------17-15-14-15-17-------------|
|------------------------------------|----------------------------------------|
|------------------------------------|----------------------------------------|
|------------------------------------|----------------------------------------|
|------------------------------------|----------------------------------------|
|
|  |--3--|  |--3--| |--3--|  |--3--|    |--3--|  |--3--|  |--3--|  |--3--|
|  S  S  S  S  S  S S  S  S  S  S  S    S  S  S  S  S  S  S  S  S  S  S  S
|----------10-12-13---13-12-10-------|----17-15-13----------------13-15-17----|
|-10-12-13----------9----------13-12-|-10----------17-15-14-15-17-------------|
|------------------------------------|----------------------------------------|
|------------------------------------|----------------------------------------|
|------------------------------------|----------------------------------------|
|------------------------------------|----------------------------------------|
|
|  W                                    W
|------------------------------------|----------------------------------------|
|------------------------------------|----------------------------------------|
|------------------------------------|----------------------------------------|
|------------------------------------|----------------------------------------|
|------------------------------------|----------------------------------------|
|------------------------------------|----------------------------------------|


  Dm                A7/E                Dm/F              A/C
   |--3--|  |--3--|  |--3--|  |--3--|    |--3--|  |--3--|  |--3--|  |--3--|
   S  S  S  S  S  S  S  S  S  S  S  S    S  S  S  S  S  S  S  S  S  S  S  S
|----------15-17-18----18-17-15-------|----17-15-17-13-17-12-17----17----17-|
|-15-17-18----------14----------18-17-|-15----------------------15----14----|
|-------------------------------------|-------------------------------------|
|-------------------------------------|-------------------------------------|
|-------------------------------------|-------------------------------------|
|-------------------------------------|-------------------------------------|
|
|  |--3--|  |--3--|  |--3--|  |--3--|    |--3--|  |--3--|  |--3--|  |--3--|
|  S  S  S  S  S  S  S  S  S  S  S  S    S  S  S  S  S  S  S  S  S  S  S  S
|----------15-17-18----18-17-15-------|----17-15-17-13-17-12-17----17----17-|
|-15-17-18----------14----------18-17-|-15----------------------15----14----|
|-------------------------------------|-------------------------------------|
|-------------------------------------|-------------------------------------|
|-------------------------------------|-------------------------------------|
|-------------------------------------|-------------------------------------|
|
|  W                                     W
|-------------------------------------|-------------------------------------|
|-------------------------------------|-------------------------------------|
|-------------------------------------|-------------------------------------|
|-------------------------------------|-------------------------------------|
|-------------------------------------|-------------------------------------|
|-------------------------------------|-------------------------------------|


  Dm                A7/E                Dm
   |--3--|  |--3--|  |--3--|  |--3--|
   S  S  S  S  S  S  S  S  S  S  S  S    Q.       E  H
|----------15-17-18----18-17-15-------|-------------------|
|-15-17-18----------14----------18-17-|-15tr17---14-15----|
|-------------------------------------|-------------------|
|-------------------------------------|-------------------|
|-------------------------------------|-------------------|
|-------------------------------------|-------------------|
|
|  |--3--|  |--3--|  |--3--|  |--3--|
|  S  S  S  S  S  S  S  S  S  S  S  S    Q.       E  H
|----------15-17-18----18-17-15-------|-------------------|
|-15-17-18----------14----------18-17-|-15tr17---14-15----|
|-------------------------------------|-------------------|
|-------------------------------------|-------------------|
|-------------------------------------|-------------------|
|-------------------------------------|-------------------|
|
|  W                                     W
|-------------------------------------|-------------------|
|-------------------------------------|-------------------|
|-------------------------------------|-------------------|
|-------------------------------------|-------------------|
|-------------------------------------|-------------------|
|-------------------------------------|-------------------|


  E7add2                                E7add2/G#
   |--3--|  |--3--|  |--3--|  |--3--|    |-3--|  |-3-|  |--3--|
   S  S  S  S  S  S  S  S  S  S  S  S    S  S S  S S S  S  S  S  Q
|-16-13----------13-13-10----------10-|-10--7--------7-13-10--------|
|-------15----15----------12----12----|-------9----9---------12-18--|
|----------16----------------13-------|---------10------------------|
|-------------------------------------|-----------------------------|
|-------------------------------------|-----------------------------|
|-------------------------------------|-----------------------------|
|
|  |--3--|  |--3--|  |--3--|  |--3--|    |-3--|  |-3-|  |--3--|
|  S  S  S  S  S  S  S  S  S  S  S  S    S  S S  S S S  S  S  S  Q
|-16-13----------13-13-10----------10-|-10--7--------7-13-10--------|
|-------15----15----------12----12----|-------9----9---------12-18--|
|----------16----------------13-------|---------10------------------|
|-------------------------------------|-----------------------------|
|-------------------------------------|-----------------------------|
|-------------------------------------|-----------------------------|
|
|  W                                    +W
|--4----------------------------------|-(4)-------------------------|
|--6----------------------------------|-(6)-------------------------|
|--4----------------------------------|-(4)-------------------------|
|--6----------------------------------|-(6)-------------------------|
|-------------------------------------|-----------------------------|
|-------------------------------------|-----------------------------|


  Am                E7/B               Am/C             E7/G#
   |--3--|  |--3--| |--3--|  |--3--|    |--3--|  |-3--| |--3--|  |-3--|
   S  S  S  S  S  S S  S  S  S  S  S    S  S  S  S S  S S  S  S  S S  S
|----------10-12-13---13-12-10-------|----12-10-12-8-12-7-12----12---12-|
|-10-12-13----------9----------13-12-|-10--------------------10----9----|
|------------------------------------|----------------------------------|
|------------------------------------|----------------------------------|
|------------------------------------|----------------------------------|
|------------------------------------|----------------------------------|
|
|  |--3--|  |--3--| |--3--|  |--3--|    |--3--|  |-3--| |--3--|  |-3--|
|  S  S  S  S  S  S S  S  S  S  S  S    S  S  S  S S  S S  S  S  S S  S
|----------10-12-13---13-12-10-------|----12-10-12-8-12-7-12----12---12-|
|-10-12-13----------9----------13-12-|-10--------------------10----9----|
|------------------------------------|----------------------------------|
|------------------------------------|----------------------------------|
|------------------------------------|----------------------------------|
|------------------------------------|----------------------------------|
|
|  W                                    W
|------------------------------------|----------------------------------|
|------------------------------------|----------------------------------|
|------------------------------------|----------------------------------|
|------------------------------------|----------------------------------|
|------------------------------------|----------------------------------|
|------------------------------------|----------------------------------|


  Am                E7/B               Am/C              A/C
   |--3--|  |--3--| |--3--|  |--3--|    |--3--|  |--3--|  |--3--|  |--3--|
   S  S  S  S  S  S S  S  S  S  S  S    S  S  S  S  S  S  S  S  S  S  S  S
|----------10-12-13---13-12-10-------|----17-15-13----------------13-15-17----|
|-10-12-13----------9----------13-12-|-10----------17-15-14-15-17-------------|
|------------------------------------|----------------------------------------|
|------------------------------------|----------------------------------------|
|------------------------------------|----------------------------------------|
|------------------------------------|----------------------------------------|
|
|  |--3--|  |--3--| |--3--|  |--3--|    |--3--|  |--3--|  |--3--|  |--3--|
|  S  S  S  S  S  S S  S  S  S  S  S    S  S  S  S  S  S  S  S  S  S  S  S
|----------10-12-13---13-12-10-------|----17-15-13----------------13-15-17----|
|-10-12-13----------9----------13-12-|-10----------17-15-14-15-17-------------|
|------------------------------------|----------------------------------------|
|------------------------------------|----------------------------------------|
|------------------------------------|----------------------------------------|
|------------------------------------|----------------------------------------|
|
|  W                                    W
|------------------------------------|----------------------------------------|
|------------------------------------|----------------------------------------|
|------------------------------------|----------------------------------------|
|------------------------------------|----------------------------------------|
|------------------------------------|----------------------------------------|
|------------------------------------|----------------------------------------|


  Dm                A7/E                Dm/F              A/C
   |--3--|  |--3--|  |--3--|  |--3--|    |--3--|  |--3--|  |--3--|  |--3--|
   S  S  S  S  S  S  S  S  S  S  S  S    S  S  S  S  S  S  S  S  S  S  S  S
|----------15-17-18----18-17-15-------|----17-15-17-13-17-12-17----17----17-|
|-15-17-18----------14----------18-17-|-15----------------------15----14----|
|-------------------------------------|-------------------------------------|
|-------------------------------------|-------------------------------------|
|-------------------------------------|-------------------------------------|
|-------------------------------------|-------------------------------------|
|
|  |--3--|  |--3--|  |--3--|  |--3--|    |--3--|  |--3--|  |--3--|  |--3--|
|  S  S  S  S  S  S  S  S  S  S  S  S    S  S  S  S  S  S  S  S  S  S  S  S
|----------15-17-18----18-17-15-------|----17-15-17-13-17-12-17----17----17-|
|-15-17-18----------14----------18-17-|-15----------------------15----14----|
|-------------------------------------|-------------------------------------|
|-------------------------------------|-------------------------------------|
|-------------------------------------|-------------------------------------|
|-------------------------------------|-------------------------------------|
|
|  W                                     W
|-------------------------------------|-------------------------------------|
|-------------------------------------|-------------------------------------|
|-------------------------------------|-------------------------------------|
|-------------------------------------|-------------------------------------|
|-------------------------------------|-------------------------------------|
|-------------------------------------|-------------------------------------|


  Dm                A7/E                Am
   |--3--|  |--3--|  |--3--|  |--3--|
   S  S  S  S  S  S  S  S  S  S  S  S    Q.       E  H
|----------15-17-18----18-17-15-------|-------------------|
|-15-17-18----------14----------18-17-|-15tr17---14-15----|
|-------------------------------------|-------------------|
|-------------------------------------|-------------------|
|-------------------------------------|-------------------|
|-------------------------------------|-------------------|
|
|  |--3--|  |--3--|  |--3--|  |--3--|
|  S  S  S  S  S  S  S  S  S  S  S  S    Q.       E  H
|----------15-17-18----18-17-15-------|-------------------|
|-15-17-18----------14----------18-17-|-15tr17---14-15----|
|-------------------------------------|-------------------|
|-------------------------------------|-------------------|
|-------------------------------------|-------------------|
|-------------------------------------|-------------------|
|
|  W                                     W
|-------------------------------------|-------------------|
|-------------------------------------|-------------------|
|-------------------------------------|-------------------|
|-------------------------------------|-------------------|
|-------------------------------------|-------------------|
|-------------------------------------|-------------------|


  E7add2                                E7add2/G#          E7add2/B
   |--3--|  |--3--|  |--3--|  |--3--|    |--3---|  |--3--|  |-3-|  |-3-|
   S  S  S  S  S  S  S  S  S  S  S  S    S   S  S  S  S  S  S S S  S S S
|-19-16----------16-16-13----------13-|-13--10----------10-10-7--------7-|
|-------18----18----------15----15----|--------12----12---------9----9---|
|----------19----------------16-------|-----------13--------------10-----|
|-------------------------------------|----------------------------------|
|-------------------------------------|----------------------------------|
|-------------------------------------|----------------------------------|
|
|  |--3--|  |--3--|  |--3--|  |--3--|    |--3---|  |--3--|  |-3-|  |-3-|
|  S  S  S  S  S  S  S  S  S  S  S  S    S   S  S  S  S  S  S S S  S S S
|-19-16----------16-16-13----------13-|-13--10----------10-10-7--------7-|
|-------18----18----------15----15----|--------12----12---------9----9---|
|----------19----------------16-------|-----------13--------------10-----|
|-------------------------------------|----------------------------------|
|-------------------------------------|----------------------------------|
|-------------------------------------|----------------------------------|
|
|  W                                    +W
|--4----------------------------------|-(4)------------------------------|
|--6----------------------------------|-(6)------------------------------|
|--4----------------------------------|-(4)------------------------------|
|--6----------------------------------|-(6)------------------------------|
|-------------------------------------|----------------------------------|
|-------------------------------------|----------------------------------|


  D#7                       D#7/F#
         2:3|        2:3|        2:3      2:3
   T  T  S  S  T  T  S  S  T  T  S S T  T S S
|-17-20-17S14-14-17-14S11-11-14-11S8-8-11-8S5S|
|---------------------------------------------|
|---------------------------------------------|
|---------------------------------------------|
|---------------------------------------------|
|---------------------------------------------|
|
|        2:3|        2:3|        2:3      2:3
|  T  T  S  S  T  T  S  S  T  T  S S T  T S S
|-17-20-17S14-14-17-14S11-11-14-11S8-8-11-8S5S|
|---------------------------------------------|
|---------------------------------------------|
|---------------------------------------------|
|---------------------------------------------|
|---------------------------------------------|
|
|  W
|--2------------------------------------------|
|--4------------------------------------------|
|--5------------------------------------------|
|--4------------------------------------------|
|---------------------------------------------|
|---------------------------------------------|


  D#7/A                 D#7/F#
          2:3
   T   T  S S T  T S   E   H
|-11--14-11S8-8-11-8-/15-/18\----||
|--------------------------------||
|--------------------------------||
|--------------------------------||
|--------------------------------||
|--------------------------------||
|
|         2:3
|  T   T  S S T  T S   E   H
|-11--14-11S8-8-11-8-/15-/18\----||
|--------------------------------||
|--------------------------------||
|--------------------------------||
|--------------------------------||
|--------------------------------||
|
| +W
|-(2)----------------------------||
|-(4)----------------------------||
|-(5)----------------------------||
|-(4)----------------------------||
|--------------------------------||
|--------------------------------||


 Theme II
  Am
   H.       Q     Q    Q   Q   Q
|--------------|----------------------|
|--------------|----------------------|
|--------------|------16--17--17pb19r=|
|-19-------18--|-19-------------------|
|--------------|----------------------|
|--------------|----------------------|
|
|  H.       Q     Q    Q   Q   Q
|--------------|----------------------|
|--------------|----------------------|
|--------------|----------------------|
|--------------|----------------------|
|-12-------11--|-12---14--15--15pb17r=|
|--------------|----------------------|
|
|  W             +W
|--5-----------|-(5)------------------|
|--5-----------|-(5)------------------|
|--5-----------|-(5)------------------|
|--7-----------|-(7)------------------|
|--------------|----------------------|
|--------------|----------------------|


   +H      +E.  T  T  Q     Q    Q   Q   Q
|------------------------|----------------------|
|------------------------|----------17--18b20---|
|-(17)----(17)-19-17-16--|-17---19--------------|
|------------------------|----------------------|
|------------------------|----------------------|
|------------------------|----------------------|
|
|  +H      +E.  T  T  Q     Q    Q   Q   Q
|------------------------|----------------------|
|------------------------|----------------------|
|------------------------|----------------------|
|------------------------|----------14--15b17---|
|-(15)----(15)-17-15-14--|-15---17--------------|
|------------------------|----------------------|
|
|  +W                      +W
|--(5)-------------------|-(5)------------------|
|--(5)-------------------|-(5)------------------|
|--(5)-------------------|-(5)------------------|
|--(7)-------------------|-(7)------------------|
|------------------------|----------------------|
|------------------------|----------------------|


  Dm                                   D#7
   H.       Q     Q    Q      Q   Q     H.       S  S  S  S
|--------------|-------------17--19--|-20-------20-19-17----|
|-18-------17--|-18---20-------------|-------------------18-|
|--------------|---------------------|----------------------|
|--------------|---------------------|----------------------|
|--------------|---------------------|----------------------|
|--------------|---------------------|----------------------|
|
|  H.       Q     Q    Q      Q   Q     W
|--------------|---------------------|----------------------|
|--------------|---------------------|----------------------|
|--------------|-------------14--16--|-17-------------------|
|-15-------14--|-15---17b19----------|----------------------|
|--------------|---------------------|----------------------|
|--------------|---------------------|----------------------|
|
|  W             +W                     W
|--5-----------|-(5)-----------------|--5-------------------|
|--6-----------|-(6)-----------------|--7-------------------|
|--7-----------|-(7)-----------------|--8-------------------|
|--7-----------|-(7)-----------------|--7-------------------|
|--------------|---------------------|----------------------|
|--------------|---------------------|----------------------|


  Esus4                   E
   S  S  S  S  S  S  S  S  S  S  S  S  S  E.
|---------------------------------------------|
|-17-15---------------------------------------|
|-------17-16-14------------------------------|
|----------------15-14-12---------------------|
|-------------------------15-14-12------------|
|----------------------------------16-13-12---|
|
|  H                       H
|---------------------------------------------|
|---------------------------------------------|
|-16----------------------13------------------|
|---------------------------------------------|
|---------------------------------------------|
|---------------------------------------------|
|
|  H                       H
|---------------------------------------------|
|-10-----------------------9------------------|
|--9-----------------------9------------------|
|--9-----------------------9------------------|
|---------------------------------------------|
|---------------------------------------------|


  Am
   H.       Q     Q    Q   Q   Q
|--------------|----------------------|
|--------------|----------------------|
|--------------|------16--17--17pb19r=|
|-19-------18--|-19-------------------|
|--------------|----------------------|
|--------------|----------------------|
|
|  H.       Q     Q    Q   Q   Q
|--------------|----------------------|
|--------------|----------------------|
|--------------|----------------------|
|--------------|----------------------|
|-12-------11--|-12---14--15--15pb17r=|
|--------------|----------------------|
|
|  W             +W
|--5-----------|-(5)------------------|
|--5-----------|-(5)------------------|
|--5-----------|-(5)------------------|
|--7-----------|-(7)------------------|
|--------------|----------------------|
|--------------|----------------------|


   +H      +E.  T  T  Q     Q    Q   Q   S  E.
|------------------------|----------------------|
|------------------------|----------17--18h20---|
|-(17)----(17)-19-17-16--|-17---19--------------|
|------------------------|----------------------|
|------------------------|----------------------|
|------------------------|----------------------|
|
|  +H      +E.  T  T  Q     Q    Q   Q   S  E.
|------------------------|----------------------|
|------------------------|----------------------|
|------------------------|----------------------|
|------------------------|----------14--15h17---|
|-(15)----(15)-17-15-14--|-15---17--------------|
|------------------------|----------------------|
|
|  +W                      +W
|--(5)-------------------|-(5)------------------|
|--(5)-------------------|-(5)------------------|
|--(5)-------------------|-(5)------------------|
|--(7)-------------------|-(7)------------------|
|------------------------|----------------------|
|------------------------|----------------------|


  Dm                                   D#7
                                              |-----------9-----------|
   H.          Q     Q    Q   Q   Q     H     E  E  E  E  E  E  E  E  E
|-----------------|----------17--19--|-20----20-19-17-20-19-17-19-17-16-|
|-18tr20------17--|-18---20----------|----------------------------------|
|-----------------|------------------|----------------------------------|
|-----------------|------------------|----------------------------------|
|-----------------|------------------|----------------------------------|
|-----------------|------------------|----------------------------------|
|
|  H.          Q     Q    Q   Q   Q     W
|-----------------|------------------|----------------------------------|
|-----------------|------------------|----------------------------------|
|-----------------|----------14--16--|-17-------------------------------|
|-15tr17------14--|-15---17----------|----------------------------------|
|-----------------|------------------|----------------------------------|
|-----------------|------------------|----------------------------------|
|
|  W                +W                  W
|--5--------------|-(5)--------------|--5-------------------------------|
|--6--------------|-(6)--------------|--7-------------------------------|
|--7--------------|-(7)--------------|--8-------------------------------|
|--7--------------|-(7)--------------|--7-------------------------------|
|-----------------|------------------|----------------------------------|
|-----------------|------------------|----------------------------------|


  Esus4                   E
                           |-----5-----|
   S  S  S  S  S  S  S  S  S  S  S  S  S Q
|-17-16-13-16-13-12S10-13-12-10-------------|
|-------------------------------13-12-10S9--|
|-------------------------------------------|
|-------------------------------------------|
|-------------------------------------------|
|-------------------------------------------|
|
|  H                       H
|-------------------------------------------|
|-------------------------------------------|
|-16----------------------13----------------|
|-------------------------------------------|
|-------------------------------------------|
|-------------------------------------------|
|
|  H                       H
|-------------------------------------------|
|-10-----------------------9----------------|
|--9-----------------------9----------------|
|--9-----------------------9----------------|
|-------------------------------------------|
|-------------------------------------------|


  F                                    D/F#
   H.         Q      Q    Q   Q   Q     W            Q       Q   Q   +Q
|----------------|-------19--20--22--|-22--------|--20pb22r=20--19--(19)b20--|
|-21b22------21--|--22---------------|-----------|---------------------------|
|----------------|-------------------|-----------|---------------------------|
|----------------|-------------------|-----------|---------------------------|
|----------------|-------------------|-----------|---------------------------|
|----------------|-------------------|-----------|---------------------------|
|
|  W                +W                  W           +W
|----------------|-------------------|-----------|---------------------------|
|-18-------------|-(18)--------------|-19--------|-(19)----------------------|
|----------------|-------------------|-----------|---------------------------|
|----------------|-------------------|-----------|---------------------------|
|----------------|-------------------|-----------|---------------------------|
|----------------|-------------------|-----------|---------------------------|
|
|  W                +W                  W           +W
|--5-------------|--(5)--------------|--5--------|--(5)----------------------|
|--6-------------|--(6)--------------|--7--------|--(7)----------------------|
|--5-------------|--(5)--------------|--7--------|--(7)----------------------|
|--7-------------|--(7)--------------|--7--------|--(7)----------------------|
|----------------|-------------------|-----------|---------------------------|
|----------------|-------------------|-----------|---------------------------|


  G
   W            Q    Q   Q.       +S   S
|-19--------|--19---20--19pb20r==(19)-19-|
|-----------|----------------------------|
|-----------|----------------------------|
|-----------|----------------------------|
|-----------|----------------------------|
|-----------|----------------------------|
|
|  W           +W
|-----------|----------------------------|
|-20--------|-(20)-----------------------|
|-----------|----------------------------|
|-----------|----------------------------|
|-----------|----------------------------|
|-----------|----------------------------|
|
|  W           +W
|--7--------|--(7)-----------------------|
|--8--------|--(8)-----------------------|
|--7--------|--(7)-----------------------|
|--9--------|--(9)-----------------------|
|-----------|----------------------------|
|-----------|----------------------------|


  E/G#
   S  S  S  S  S  S  S  S  S  S  S  S  S  S  S  S
|-20-19-17S16-20-19-17S16-17-19-16S13-17-16-13-16-|
|-------------------------------------------------|
|-------------------------------------------------|
|-------------------------------------------------|
|-------------------------------------------------|
|-------------------------------------------------|
|
|  W
|-------------------------------------------------|
|-21----------------------------------------------|
|-------------------------------------------------|
|-------------------------------------------------|
|-------------------------------------------------|
|-------------------------------------------------|
|
|  W
|--7----------------------------------------------|
|--9----------------------------------------------|
|--9----------------------------------------------|
|--9----------------------------------------------|
|-------------------------------------------------|
|-------------------------------------------------|


    S   S  S  S  S  S  S  S  S  S  S  S  S  S S  T T
|--13--12-10-13-12-10------------------------------8-|
|---------------------13-12-10-13-12-10-12-10S9-10---|
|----------------------------------------------------|
|----------------------------------------------------|
|----------------------------------------------------|
|----------------------------------------------------|
|
|  +W
|----------------------------------------------------|
|-(21)-----------------------------------------------|
|----------------------------------------------------|
|----------------------------------------------------|
|----------------------------------------------------|
|----------------------------------------------------|
|
|  +W
|--(7)-----------------------------------------------|
|--(9)-----------------------------------------------|
|--(9)-----------------------------------------------|
|--(9)-----------------------------------------------|
|----------------------------------------------------|
|----------------------------------------------------|


  Am
       |--3--|
   E.  S  S  S  S  S  S  S  S  S  S  S  S     S   S  S  S  +H.
|-12-----12-17-12----12-17-15-17-15-13----|-----------------------|
|-----13----------13-------------------17-|--15--13---------------|
|-----------------------------------------|---------16-14-(14)----|
|-----------------------------------------|-----------------------|
|-----------------------------------------|-----------------------|
|-----------------------------------------|-----------------------|
|
|  W                                         +W
|-----------------------------------------|-----------------------|
|-----------------------------------------|-----------------------|
|--2--------------------------------------|--(2)------------------|
|--2--------------------------------------|--(2)------------------|
|--0--------------------------------------|--(0)------------------|
|-----------------------------------------|-----------------------|
|
|  W                                         +W
|--7--------------------------------------|--(7)------------------|
|-10--------------------------------------|-(10)------------------|
|--9--------------------------------------|--(9)------------------|
|-10--------------------------------------|-(10)------------------|
|-----------------------------------------|-----------------------|
|-----------------------------------------|-----------------------|


 Theme III
  Am
  Q   S   S  S  S  S  S  S  S  S  S  S  S
|-----------------------------------------|
|----22--20-18S17-20-18-17S15-18-17-15S13-|
|-----------------------------------------|
|-----------------------------------------|
|-----------------------------------------|
|-----------------------------------------|
|
| Q   S   S  S  S  S  S  S  S  S  S  S  S
|----20--19-17S15-19-17-15S13-17-15-13S12-|
|-----------------------------------------|
|-----------------------------------------|
|-----------------------------------------|
|-----------------------------------------|
|-----------------------------------------|
|
| Q   H.
|-5---------------------------------------|
|-5---------------------------------------|
|-5---------------------------------------|
|-7---------------------------------------|
|-----------------------------------------|
|-----------------------------------------|


                                         E
   S   S  S  S  S  S  S  S      +H
|--------------------------------------------|
|-17--15-13S12-15-13-12S10tr12-(10tr12)------|
|--------------------------------------------|
|--------------------------------------------|
|--------------------------------------------|
|--------------------------------------------|
|
|  S   S  S  S  S  S  S  S      +H
|-15--13-12S10-13-12-10S=8------(8tr10)------|
|--------------------------------------------|
|--------------------------------------------|
|--------------------------------------------|
|--------------------------------------------|
|--------------------------------------------|
|
|  H.                                    Q
|----------------------------------------4---|
|----------------------------------------5---|
|----------------------------------------4---|
|----------------------------------------6---|
|--------------------------------------------|
|--------------------------------------------|


  Am
  Q   S   S  S  S  S  S  S  S  S  S  S  S
|-----------------------------------------|
|----22--20-18S17-20-18-17S15-18-17-15S13-|
|-----------------------------------------|
|-----------------------------------------|
|-----------------------------------------|
|-----------------------------------------|
|
| Q   S   S  S  S  S  S  S  S  S  S  S  S
|----20--19-17S15-19-17-15S13-17-15-13S12-|
|-----------------------------------------|
|-----------------------------------------|
|-----------------------------------------|
|-----------------------------------------|
|-----------------------------------------|
|
| Q   H.
|-5---------------------------------------|
|-5---------------------------------------|
|-5---------------------------------------|
|-7---------------------------------------|
|-----------------------------------------|
|-----------------------------------------|


                                         E
   S   S  S  S  S  S  S  S      +H
|--------------------------------------------|
|-17--15-13S12-15-13-12S10tr12-(10tr12)------|
|--------------------------------------------|
|--------------------------------------------|
|--------------------------------------------|
|--------------------------------------------|
|
|  S   S  S  S  S  S  S  S      +H
|-15--13-12S10-13-12-10S=8------(8tr10)------|
|--------------------------------------------|
|--------------------------------------------|
|--------------------------------------------|
|--------------------------------------------|
|--------------------------------------------|
|
|  H.                                    Q
|----------------------------------------4---|
|----------------------------------------5---|
|----------------------------------------4---|
|----------------------------------------6---|
|--------------------------------------------|
|--------------------------------------------|


  F
      |-----5------|  |-----5-----|
  Q   S   S  S  S  S  S  S  S  S  S  S  S  S  S
|-----------------------------------------------|
|-----------------------------15-17-18-17-15----|
|--------------------14-16-17----------------17-|
|-----------14-15-17----------------------------|
|----15--17-------------------------------------|
|-----------------------------------------------|
|
| W
|-----------------------------------------------|
|-----------------------------------------------|
|-----------------------------------------------|
|-----------------------------------------------|
|-----------------------------------------------|
|-----------------------------------------------|
|
| Q   H.
|-5---------------------------------------------|
|-6---------------------------------------------|
|-5---------------------------------------------|
|-7---------------------------------------------|
|-----------------------------------------------|
|-----------------------------------------------|


                              E
   S   S  S  S  S  S  E  +H
|--------------------------------|
|--------------------------------|
|-16--14-------------------------|
|--------17-15-14-17-15-(15)-----|
|--------------------------------|
|--------------------------------|
|
|  W
|--------------------------------|
|--------------------------------|
|--------------------------------|
|--------------------------------|
|--------------------------------|
|--------------------------------|
|
|  H.                         Q
|-----------------------------4--|
|-----------------------------5--|
|-----------------------------4--|
|-----------------------------6--|
|--------------------------------|
|--------------------------------|


  Am
  Q   S   S  S  S  S  S  S  S  S  S  S  S
|-----------------------------------------|
|----22--20-18S17-20-18-17S15-18-17-15S13-|
|-----------------------------------------|
|-----------------------------------------|
|-----------------------------------------|
|-----------------------------------------|
|
| Q   S   S  S  S  S  S  S  S  S  S  S  S
|----20--19-17S15-19-17-15S13-17-15-13S12-|
|-----------------------------------------|
|-----------------------------------------|
|-----------------------------------------|
|-----------------------------------------|
|-----------------------------------------|
|
| Q   H.
|-5---------------------------------------|
|-5---------------------------------------|
|-5---------------------------------------|
|-7---------------------------------------|
|-----------------------------------------|
|-----------------------------------------|


   S  S  S  S  S  S  S  S      +H
|-----------------------------------------|
|-17-15-13S12-15-13-12S10tr12-(10tr12)----|
|-----------------------------------------|
|-----------------------------------------|
|-----------------------------------------|
|-----------------------------------------|
|
|  S  S  S  S  S  S  S  S      +H
|-15-13-12S10-13-12-10S=8------(8tr10)----|
|-----------------------------------------|
|-----------------------------------------|
|-----------------------------------------|
|-----------------------------------------|
|-----------------------------------------|
|
|  W
|-----------------------------------------|
|-----------------------------------------|
|-----------------------------------------|
|-----------------------------------------|
|-----------------------------------------|
|-----------------------------------------|


  D#7
   |------6-------|  |------6-------|    |-------6-------|  |------6-------|
   E  E  E  E  E  E  E  E  E  E  E  E    E   E  E  E  E  E  E  E  E  E  E  E
|-17-20-17-14-20-17-20-17-14-20-17-20-|-17--14-20-17-20-17-14-20-17-20-17-14-|
|-------------------------------------|--------------------------------------|
|-------------------------------------|--------------------------------------|
|-------------------------------------|--------------------------------------|
|-------------------------------------|--------------------------------------|
|-------------------------------------|--------------------------------------|
|
|  W                                     W
|-------------------------------------|--------------------------------------|
|-------------------------------------|--------------------------------------|
|-------------------------------------|--------------------------------------|
|-------------------------------------|--------------------------------------|
|-------------------------------------|--------------------------------------|
|-------------------------------------|--------------------------------------|
|
|  W                                    +W
|--2----------------------------------|-(2)----------------------------------|
|--4----------------------------------|-(4)----------------------------------|
|--5----------------------------------|-(5)----------------------------------|
|--4----------------------------------|-(4)----------------------------------|
|-------------------------------------|--------------------------------------|
|-------------------------------------|--------------------------------------|


  Esus4                       E
                    |--3--|
   H     +E   S  S  S  S  S    S   S  S  S  S  S  S  S  S  S  S  S  Q
|-20----(20)-19-20-19-17S16-|--------------------------------------------|
|---------------------------|-18--17-15----------------------------------|
|---------------------------|-----------17-16-14-------------------------|
|---------------------------|--------------------15-14-12----------------|
|---------------------------|-----------------------------15-14-12S11----|
|---------------------------|--------------------------------------------|
|
|  W                           W
|---------------------------|--------------------------------------------|
|---------------------------|--------------------------------------------|
|---------------------------|--------------------------------------------|
|---------------------------|--------------------------------------------|
|---------------------------|--------------------------------------------|
|---------------------------|--------------------------------------------|
|
|  W                           W
|---------------------------|--------------------------------------------|
|-10------------------------|--9-----------------------------------------|
|--9------------------------|-(9)----------------------------------------|
|--9------------------------|-(9)----------------------------------------|
|---------------------------|--------------------------------------------|
|---------------------------|--------------------------------------------|


  Am
  Q   S   S  S  S  S  S  S  S  S  S  S  S
|-----------------------------------------|
|----22--20-18S17-20-18-17S15-18-17-15S13-|
|-----------------------------------------|
|-----------------------------------------|
|-----------------------------------------|
|-----------------------------------------|
|
| Q   S   S  S  S  S  S  S  S  S  S  S  S
|----20--19-17S15-19-17-15S13-17-15-13S12-|
|-----------------------------------------|
|-----------------------------------------|
|-----------------------------------------|
|-----------------------------------------|
|-----------------------------------------|
|
| Q   H.
|-5---------------------------------------|
|-5---------------------------------------|
|-5---------------------------------------|
|-7---------------------------------------|
|-----------------------------------------|
|-----------------------------------------|


                                         E
   S   S  S  S  S  S  S  S      +H
|--------------------------------------------|
|-17--15-13S12-15-13-12S10tr12-(10tr12)------|
|--------------------------------------------|
|--------------------------------------------|
|--------------------------------------------|
|--------------------------------------------|
|
|  S   S  S  S  S  S  S  S      +H
|-15--13-12S10-13-12-10S=8------(8tr10)------|
|--------------------------------------------|
|--------------------------------------------|
|--------------------------------------------|
|--------------------------------------------|
|--------------------------------------------|
|
|  H.                                    Q
|----------------------------------------4---|
|----------------------------------------5---|
|----------------------------------------4---|
|----------------------------------------6---|
|--------------------------------------------|
|--------------------------------------------|


  Am
  Q   S   S  S  S  S  S  S  S  S  S  S  S
|-----------------------------------------|
|----22--20-18S17-20-18-17S15-18-17-15S13-|
|-----------------------------------------|
|-----------------------------------------|
|-----------------------------------------|
|-----------------------------------------|
|
| Q   S   S  S  S  S  S  S  S  S  S  S  S
|----20--19-17S15-19-17-15S13-17-15-13S12-|
|-----------------------------------------|
|-----------------------------------------|
|-----------------------------------------|
|-----------------------------------------|
|-----------------------------------------|
|
| Q   H.
|-5---------------------------------------|
|-5---------------------------------------|
|-5---------------------------------------|
|-7---------------------------------------|
|-----------------------------------------|
|-----------------------------------------|


                                         E
   S   S  S  S  S  S  S  S      +H
|--------------------------------------------|
|-17--15-13S12-15-13-12S10tr12-(10tr12)------|
|--------------------------------------------|
|--------------------------------------------|
|--------------------------------------------|
|--------------------------------------------|
|
|  S   S  S  S  S  S  S  S      +H
|-15--13-12S10-13-12-10S=8------(8tr10)------|
|--------------------------------------------|
|--------------------------------------------|
|--------------------------------------------|
|--------------------------------------------|
|--------------------------------------------|
|
|  H.                                    Q
|----------------------------------------4---|
|----------------------------------------5---|
|----------------------------------------4---|
|----------------------------------------6---|
|--------------------------------------------|
|--------------------------------------------|


  F
                               |-----5-----|
  Q   S   S  S  S  S  S  S  S  S  S  S  S  S
|--------------------------------------------|
|--------------15-17-18-17-15----------------|
|----14--16-17----------------17-16-14-------|
|--------------------------------------17-15-|
|--------------------------------------------|
|--------------------------------------------|
|
| W
|--------------------------------------------|
|--------------------------------------------|
|--------------------------------------------|
|--------------------------------------------|
|--------------------------------------------|
|--------------------------------------------|
|
| Q   H.
|-5------------------------------------------|
|-6------------------------------------------|
|-5------------------------------------------|
|-7------------------------------------------|
|--------------------------------------------|
|--------------------------------------------|


                                        E
   |-----5------|  |-----5-----|
   S   S  S  S  S  S  S  S  S  S  S  E.  +Q
|---------------------------------------------|
|---------------------------------------------|
|-----------14-16-14--------------------------|
|-14--15-17----------17-15-14-----------------|
|-----------------------------17-15-14--(14)--|
|---------------------------------------------|
|
|  W
|---------------------------------------------|
|---------------------------------------------|
|---------------------------------------------|
|---------------------------------------------|
|---------------------------------------------|
|---------------------------------------------|
|
|  H.                                     Q
|-----------------------------------------4---|
|-----------------------------------------5---|
|-----------------------------------------4---|
|-----------------------------------------6---|
|---------------------------------------------|
|---------------------------------------------|


  Am
  Q   S   S  S  S  S  S  S  S  S  S  S  S
|-----------------------------------------|
|----22--20-18S17-20-18-17S15-18-17-15S13-|
|-----------------------------------------|
|-----------------------------------------|
|-----------------------------------------|
|-----------------------------------------|
|
| Q   S   S  S  S  S  S  S  S  S  S  S  S
|----20--19-17S15-19-17-15S13-17-15-13S12-|
|-----------------------------------------|
|-----------------------------------------|
|-----------------------------------------|
|-----------------------------------------|
|-----------------------------------------|
|
| Q   H.
|-5---------------------------------------|
|-5---------------------------------------|
|-5---------------------------------------|
|-7---------------------------------------|
|-----------------------------------------|
|-----------------------------------------|


                                         Am/E
   S   S  S  S  S  S  S  S      +H
|--------------------------------------------|
|-17--15-13S12-15-13-12S10tr12-(10tr12)------|
|--------------------------------------------|
|--------------------------------------------|
|--------------------------------------------|
|--------------------------------------------|
|
|  S   S  S  S  S  S  S  S      +H
|-15--13-12S10-13-12-10S=8------(8tr10)------|
|--------------------------------------------|
|--------------------------------------------|
|--------------------------------------------|
|--------------------------------------------|
|--------------------------------------------|
|
|  H.                                    Q
|--------------------------------------------|
|--------------------------------------------|
|----------------------------------------9---|
|----------------------------------------7---|
|----------------------------------------7---|
|--------------------------------------------|


  D#7                D#7/F#
   S S S  S S S  S  S  S  S  S  S  S  S  S  S
|---------------------------------------------|
|-10-7--------7S13-10----------10S16-13-------|
|------8----8---------11----11----------14----|
|--------10--------------13----------------16-|
|---------------------------------------------|
|---------------------------------------------|
|
|  W
|---------------------------------------------|
|---------------------------------------------|
|---------------------------------------------|
|---------------------------------------------|
|---------------------------------------------|
|---------------------------------------------|
|
|  W
|---------------------------------------------|
|--7------------------------------------------|
|--8------------------------------------------|
|-10------------------------------------------|
|--9------------------------------------------|
|---------------------------------------------|


  D#7/A                    D#7/C
    S   S  S  S  S  S  S  S  H
|---------------------------17----|
|------13S19-16----------16-------|
|--14-----------17----17----------|
|------------------19-------------|
|---------------------------------|
|---------------------------------|
|
|   W
|---------------------------------|
|---------------------------------|
|---------------------------------|
|---------------------------------|
|---------------------------------|
|---------------------------------|
|
|  +W
|---------------------------------|
|--(7)----------------------------|
|--(8)----------------------------|
|-(10)----------------------------|
|--(9)----------------------------|
|---------------------------------|


  Esus4                         Esus4/B
   |-----5-----|  |-----5-----|
   S  S  S  S  S  S  S  S  S  S  S  S  S  S  S  S  S  S
|-20-19-17-20-19-17S16-19-17-16-17-16-13-16-13S12-13-12-|
|-------------------------------------------------------|
|-------------------------------------------------------|
|-------------------------------------------------------|
|-------------------------------------------------------|
|-------------------------------------------------------|
|
|  W
|-------------------------------------------------------|
|-------------------------------------------------------|
|-------------------------------------------------------|
|-------------------------------------------------------|
|-------------------------------------------------------|
|-------------------------------------------------------|
|
|  W
|-------------------------------------------------------|
|-10----------------------------------------------------|
|--9----------------------------------------------------|
|--9----------------------------------------------------|
|-------------------------------------------------------|
|-------------------------------------------------------|


  E/G#                         E
   S   S  S  S  S S S  S S S E +Q
|-10--------------------------------|
|-----13-12-10----------------------|
|--------------10-9-7---------------|
|---------------------10-9-7S6-(6)--|
|-----------------------------------|
|-----------------------------------|
|
|  W
|-----------------------------------|
|-----------------------------------|
|-----------------------------------|
|-----------------------------------|
|-----------------------------------|
|-----------------------------------|
|
|  W
|-----------------------------------|
|--9--------------------------------|
|-(9)-------------------------------|
|-(9)-------------------------------|
|-----------------------------------|
|-----------------------------------|


 Outro
  Am
       |-----5------|  |--3--|  |--3--|        |-----5------|  |--3--|  |--3--|
   Q   S   S  S  S  S  S  S  S  S  S  S    Q   S   S  S  S  S  S  S  S  S  S  S
|------------------12-17-12-------------|------------------12-17-12-------------|
|---------------13----------13----------|---------------13----------13----------|
|------------14----------------14-------|------------14----------------14-------|
|---------14----------------------14----|---------14----------------------14----|
|-12--15-----------------------------15-|-12--15-----------------------------15-|
|---------------------------------------|---------------------------------------|
|
|  Q   H.                                  Q   H.
|---------------------------------------|---------------------------------------|
|---------------------------------------|---------------------------------------|
|--2------------------------------------|--2------------------------------------|
|--2------------------------------------|--2------------------------------------|
|--0------------------------------------|--0------------------------------------|
|---------------------------------------|---------------------------------------|
|
|  Q   H.                                  Q   H.
|--5------------------------------------|--5------------------------------------|
|--5------------------------------------|--5------------------------------------|
|--5------------------------------------|--5------------------------------------|
|--7------------------------------------|--7------------------------------------|
|---------------------------------------|---------------------------------------|
|---------------------------------------|---------------------------------------|


                                              E   Am
       |-----5------|  |--3--|  |--3--|
   Q   S   S  S  S  S  S  S  S  S  S  S    Q   Q   H       +H     H
|------------------12-17-12-------------|---------------|--------------*|
|---------------13----------13----------|---------------|--------------*|
|------------14----------------14-------|-----13--14----|-(14)---------*|
|---------14----------------------14----|---------------|--------------*|
|-12--15-----------------------------15-|-12------------|--------------*|
|---------------------------------------|---------------|--------------*|
|
|  Q   H.                                  Q   Q   H        W
|---------------------------------------|---------------|--------------*|
|---------------------------------------|---------------|--------------*|
|--2------------------------------------|--2-------2----|--------------*|
|--2------------------------------------|--2---2---2----|--------------*|
|--0------------------------------------|--0---2---0----|--------------*|
|---------------------------------------|------0--------|--------------*|
|
|  Q   H.                                  Q   Q   H        W
|--5------------------------------------|--5---4---5----|--------------*|
|--5------------------------------------|--5---5---5----|--------------*|
|--5------------------------------------|--5---4---5----|--------------*|
|--7------------------------------------|--7---6---7----|--------------*|
|---------------------------------------|---------------|--------------*|
|---------------------------------------|---------------|--------------*|


Duration Legend
---------------
W - whole; H - half; Q - quarter; E - 8th; S - 16th; T - 32nd; X - 64th; a - acciaccatura
+ - note tied to previous; . - note dotted; .. - note double dotted
Uncapitalized letters represent notes that are staccato (1/2 duration)
Irregular groupings are notated above the duration line
Duration letters will always appear directly above the note/fret number it represents the
duration for.  Duration letters with no fret number below them represent rests.  Multi-
bar rests are notated in the form Wxn, where n is the number of bars to rest for.  Low
melody durations appear below the staff

Tablature Legend
----------------
 h   - hammer-on
 p   - pull-off
 b   - bend
 pb  - pre-bend
 r   - bend release (if no number after the r, then release immediately)
 /\  - slide into or out of (from/to "nowhere")
 s   - legato slide
 S   - shift slide
  - natural harmonic
[n]  - artificial harmonic
n(n) - tapped harmonic
 ~   - vibrato
 tr  - trill
 T   - tap
 TP  - trem. picking
 PM  - palm muting
\n/  - tremolo bar dip; n = amount to dip
 \n  - tremolo bar down
 n/  - tremolo bar up
/n\  - tremolo bar inverted dip
 =   - hold bend; also acts as connecting device for hammers/pulls
 <>  - volume swell (louder/softer)
 x   - on rhythm slash represents muted slash
 o   - on rhythm slash represents single note slash

Misc Legend
-----------
 |  - bar
||  - double bar
||o - repeat start
o|| - repeat end
*|  - double bar (ending)
 :  - bar (freetime)
 $  - Segno
 &  - Coda
Tempo markers -  = BPM(8/16=s8/s16), where s8 = swing 8ths, s16 = swing 16ths
  development and support by
dmitry ivanov