rock
 
|tablatures   |lyrics   |discussion forums   |more tabs @ XGuitar.com

Yngwie Malmsteen tabs

Bad Blood guitar tab

Date: Fri, 07 Mar 2003 15:46:59 -0500
From: "DEGRANDPRE, YANICK" 
Subject: m/malmsteen_yngwie/bad_blood.tab


Artist: Yngwie Malmsteen
Song Title: "Bad Blood"
Album: The Seventh Sign
Transcribed by: Upnorth


Tune down  step

Intro (2x)
|------------------------------------------------------------------------|
|-----------------------------5-8-------8-7~-----6p5---------------------|
|-----2--2--------2--2------5---------5--------------5-------------------|
|-----2--2--------2--2---/7---------7-----------------(7)----------------|
|-7\--0--0--0--0--0--0---------------------------------------------------|
|------------------------------------------------------------------------|

|------------------------------------------------------------------------|
|-----------------------------5-8-------7fb--6h8p6p5---------------------|
|-----2--2--------2--2------5---------5--------------5-------------------|
|-----2--2--------2--2---/7---------7-----------------(7)----------------|
|-----0--0--0--0--0--0---------------------------------------------------|
|------------------------------------------------------------------------|


These chords are a bit unusual in Yngwie's "repertoire" so I am not sure
they are 100% OK. Anyway it sounds close enough.

Verses
|-1-1--------------------------------------------------------------------|
|-1-1---------3---3-----10----10-----12----12----------------------------|
|-2-2---------4---4-----10----10-----12----12----------------------------|
|-3-3-------3---3--------------------------------------------------------|
|-3-3----------------12~---12-----14----14-------------------------------|
|-1-1-1-1-1--------------------------------------------------------------|

|-1------------3-----3-------(9)-----------------------------------------|
|-1------------3-----3-------10--------------9---------------------------|
|-2------------4-----4--------9--------------9---------------------------|
|-3---3--3--3-----3----------12--0-0-0-0-0---7---------------------------|
|-3------------------------------------------0---------------------------|
|-1----------------------------------------------------------------------|

Repeat intro with slight variations

Build-up to the solo
|------------------------------------------------------------------------|
|---------------------------------------------------------------------5--|
|---------------------------------------------2-----2-4---2-4-5-2-4-5----|
|---------------------2-----2-3---2-3-5-2-3-5---3-5-----5----------------|
|---2-3---2-3-5-2-3-5---3-5-----5----------------------------------------|
|-5-----5----------------------------------------------------------------|

|------------------------------------------------------------------------|
|------------------------------------------------------------------------|
|-7-5-4------------------------------------------------------------------|
|-------7-5---------------8----------------------------------------------|
|-----------8-7-5---------8----------------------------------------------|
|-----------------8-7-5~--6----------------------------------------------|

  development and support by
dmitry ivanov