rock
 
|tablatures   |lyrics   |discussion forums   |more tabs @ XGuitar.com

Yngwie Malmsteen tabs

As Above So Below guitar tab

Yngwie Malmsteen - As Above, So Below
from Rising Force
tune down 1/2 step
Theeman@iamit.com

guitar 2 is a diatonic 3rd higher

||-----------------------|---------------------------|------------------|
||-----------------------|---------------------------|-------------5----|
||o2~----------2~---5~---|--4--2--4--------4~--4/7~--|-5--4--5~---------|
||o------2--2------------|-----------2--2------------|------------------|
||-----------------------|---------------------------|------------------|
||-----------------------|---------------------------|------------------|



|------------------------------||-----------------------|----------------
|-6--5h6p5---------------------||-----------------------|----------------
|----------7--5--4~--2--1-----o||-2~---4--2--4~---5--4--|-5--7--5--7--8--
|-----------------------------o||-----------------------|----------------
|------------------------------||-----------------------|----------------
|------------------------------||-----------------------|----------------



----------|-12h13p12p10--------------------------------------------------
----------|-------------13p12p10\9-10h12p10p9----------------------------
--7--8~---|-----------------------------------12p10p9\7--9h10p9p7--------
----------|-------------------------------------------------------10p9p7-
----------|--------------------------------------------------------------
----------|--------------------------------------------------------------



-----------------------|---------------|---------------------------------
-----------------------|---------------|---------------------------------
-----------------------|---------------|---------------------------------
-\6--7p6------7p6------|---------------|---------------------------------
---------8p7------8p7--|---------------|---------------------------------
-----------------------|--0---0--0--0--|-5---5--5--5---5--5--5---5--5--5-


Verse

                     There's a hole in the sky...
--------|----------|--------------------------------------|--------------
--------|----------|--------------------------------------|--------------
--------|----%-----|--------------------------------------|--------------
--------|----------|-----------------------------6--6--6--|-7--7--7------
--------|----------|--5--5--5--7--7--7--8--8--8-----------|----------7--7
-5--5---|----------|--------------------------------------|--------------



-----------------------|-------------------------------------|-----------|
-----------------------|-------------------------------------|-----------|
-----------------------|-------------------------------------|------%----|
-----------------------|-------------------------------------|-----------|
--7--------------------|-------------------------------------|-----------|
-----8--8--8--7--7--7--|-5---5--5--5--5--5--5--5--5--5--5--5-|-----------|



|-------------------------------------|-----------------------------------|
|-------------------------------------|-----------------------------------|
|-------------------------------------|-----------------------------------|
|----------------------------6--6--6--|-7--7--7---------------------------|
|-5--5--5--7--7--7--8--8--8-----------|----------7--7--7------------------|
|-------------------------------------|-------------------8--8--8--7--7--7|


  I will never die 'cause I will fly...
|----------|----------0---|-------------------------|--------------------|
|----------|--5----0--0---|-------------------------|--------------------|
|----------|--4-----------|--5----------------------|--------------------|
|--7-------|--2-----------|--5----------------------|--------------------|
|--7-------|--------------|--3----3--3--3--3--3--3--|-5--3h5p3--2------2-|
|--5-------|--4-----------|-------------------------|--------------5-4-0-|



|---------|---------------|-------------------------------|--------------
|---------|--5------------|-------------------------------|--------------
|---------|--4------------|--5----------------------------|--------------
|-7-------|--2------------|--5----------------------------|--------------
|-7-------|---------------|--3--3--3--3--3--3--3--3--3--3-|-5--3h5p3-2---
|-5-------|--4------------|-------------------------------|--------------



--------------|------------------------|--------------------|-----------|
--------------|------------------------|--------------------|-----------|
--------------|------------------------|--------------------|-----------|
--------------|------------------------|--------------------|-----------|
--------------|--5*--------------------|--------------------|--7--------|
--5-4~---0-4--|-------4--5--7*---5--7--|-8-7-8-10-8-10-11~--|--0--------|



Interlude

|-8h12p8------------8-10-12-8------------8----|-13-10------------10-12---
|--------10---10-12-----------10---10-12---10-|-------12-9-12-13---------
|-----------9--------------------9------------|--------------------------
|---------------------------------------------|--------------------------
|---------------------------------------------|--------------------------
|---------------------------------------------|--------------------------



-13-10------------10----|-8h12p8------------8-10-12-8------------8------|
-------12-9-12-13----12-|--------10---10-12-----------10---10-12---10---|
------------------------|-----------9--------------------9--------------|
------------------------|-----------------------------------------------|
------------------------|-----------------------------------------------|
------------------------|-----------------------------------------------|



|10-7----------7---13-10------------10----|-10h13p10-------10------------
|-----9-6-9-10---9-------12-9-12-13----12-|----------12-------12---------
|-----------------------------------------|-------------13-------13-10---
|-----------------------------------------|------------------------------
|-----------------------------------------|------------------------------
|-----------------------------------------|------------------------------



--13-10------16-13-------|-17-12-------12-8------8----------------------|
--------12-9-------15-12-|-------13-10------10-----10-------10----------|
-------------------------|---------------------9------9--------9--------|
-------------------------|------------------------------10-------10\7---|
-------------------------|----------------------------------------------|
-------------------------|----------------------------------------------|



|-5--------8-5-----11-8------14-11-------|-17-12--------12h17p12---------
|---7----------7p4------10p7-------13p10-|-------12--------------12------
|-----8-5--------------------------------|----------14--------------14---
|----------------------------------------|-------------------------------
|----------------------------------------|-------------------------------
|----------------------------------------|-------------------------------



--16-12---------16-12-------------|---------13p12----------|-12h13p12----
--------12------------/15bf-12----|-15~-----------15-13-15-|----------15-
-----------13------------------13-|------------------------|-------------
----------------------------------|------------------------|-------------
----------------------------------|------------------------|-------------
----------------------------------|------------------------|-------------



---------12-13p12----------15p12-13h15h17-17p15p13-17h19|p17p15p13\12~~~~
-13-15------------15-13-15------------------------------|----------------
--------------------------------------------------------|----------------
--------------------------------------------------------|----------------
--------------------------------------------------------|----------------
--------------------------------------------------------|----------------



-----------12-17p12----|---------13h15p13-12--10-12p10----------10-------
--------13----------13-|-x----15-----------------------13-12h13----13p12p  
-----14----------------|14p12--------------------------------------------
--14-------------------|-------------------------------------------------
-----------------------|-------------------------------------------------
-----------------------|-------------------------------------------------



-----13p12p10-12p10----|------10-----------------------------------------
--10----------------13p|12h13----13-12-10-13-12-10-9-12-10-9----10p9-----
-----------------------|-------------------------------------12------12--
-----------------------|-------------------------------------------------
-----------------------|-------------------------------------------------
-----------------------|-------------------------------------------------



----------------------|-----------12p10p8-13p12p10-----------------------
------10p9------------|--------10------------------13-12p10-12-10-x/-----
-10-9------12p10p9----|-9----9-------------------------------------------
-------------------12-|---10---------------------------------------------
----------------------|--------------------------------------------------
----------------------|--------------------------------------------------


                                                           dive
-17p12h17-|t20p12h17p12h17-t20p12h17p12h17-12h15h17p12-h14-w/bar-0-12----
----------|--------------------------------------------------------------
----------|--------------------------------------------------------------
----------|--------------------------------------------------------------
----------|--------------------------------------------------------------
----------|--------------------------------------------------------------



--15p13p12--|-13p12-------12--------12-----------------------------------|
------------|-------15bf------15bf------15bf--15bf--15bf--rb15p13--15bf~-|
------------|------------------------------------------------------------|
------------|------------------------------------------------------------|
------------|------------------------------------------------------------|
------------|------------------------------------------------------------|



|---------------------------------------------|--------------------------
|---------------------------------------------|-10-10-10-12-12-12-13-13--
|---------------7-7-7-9-9-9-10-10-10-12-12-12-|--------------------------
|-7-7-9-9-10-10-------------------------------|--------------------------
|---------------------------------------------|--------------------------
|---------------------------------------------|--------------------------



-------------12---------------------------------------------------------|
-13-15-15-15-15bf~------------------------------------------------------|
------------------------------------------------------------------------|
--------------------------------------------------------------x\--------|
------------------------------------------------------------------------|
------------------------------------------------------------------------|


                         2
|--------17-19-20-20bf--20b---rb20--17-20-19-17-|-16-17-19-20-19-17-16-17
|--20bf-----------------------------------------|------------------------
|-----------------------------------------------|------------------------
|-----------------------------------------------|------------------------
|-----------------------------------------------|------------------------
|-----------------------------------------------|------------------------



--19-20-19-17\16-19-17p16----17-16----------|-16----------19p17p16-------
--------------------------18-------18p17h18-|----18p17p15----------19-17-
--------------------------------------------|----------------------------
--------------------------------------------|----------------------------
--------------------------------------------|----------------------------
--------------------------------------------|----------------------------



--------------------------------------------|----------------------------
-15-----------------------------------------|----------------------------
----17p16p14\13-14p13----14p13----------13--|----------------------------
----------------------15-------15p14h15-----|-14-12----14-12-------------
--------------------------------------------|-------15-------15-14-12----
--------------------------------------------|----------------------------



--------------------------------------------------|----------------------
--------------------------------------------------|-------------13-15-17-
-----------------13-14-16-14p13h14-13-------------|----13-14-16----------
--------12-14-15----------------------15-14-12-14-|-15-------------------
--14-15-------------------------------------------|----------------------
--------------------------------------------------|----------------------



-13h15p13p12-h13p12\10-0--------------------------------------|----------
--------------------------10h12-13p12p10-12p10\8h10p8\6h8p6\5-|-6p5------
--------------------------------------------------------------|-----7p5\4
--------------------------------------------------------------|----------
--------------------------------------------------------------|----------
--------------------------------------------------------------|----------



-----------------------------------|-12-8------------8-10-12-8-----------
-----------------------------------|------10---10-12-----------10---10-12
--10bf--rb10---p9--p7--\--5--\--4--|---------9--------------------9------
-----------------------------------|-------------------------------------
-----------------------------------|-------------------------------------
-----------------------------------|-------------------------------------



--8----|-13-10-------------10-12-13-10------------10----|-8h12p8---------
----10-|-------12-9-12-13--------------12-9-12-13----12-|--------10---10-
-------|------------------------------------------------|-----------9----
-------|------------------------------------------------|----------------
-------|------------------------------------------------|----------------
-------|------------------------------------------------|----------------



----8-10-12-8------------8----|-10-7----------7---13-10------------10----|
-12-----------10---10-12---10-|------9-6-9-10---9-------12-9-12-13----12-|
-----------------9------------|------------------------------------------|
------------------------------|------------------------------------------|
------------------------------|------------------------------------------|
------------------------------|------------------------------------------|



|-10h13p10--------10-----------13-10------16-13-------|-17-12-------12-8-
|----------12--------12--------------12-9-------15-12-|-------13-10------
|-------------13--------13-10-------------------------|------------------
|-----------------------------------------------------|------------------
|-----------------------------------------------------|------------------
|-----------------------------------------------------|------------------



-------8---------------------|-5--------8-5------11-8-------14-11-------|
-10------10-------10---------|---7----------7p4-------10p7--------13p10-|
----9-------9--------9-------|-----8-5----------------------------------|
--------------10-------10\7--|------------------------------------------|
-----------------------------|------------------------------------------|
-----------------------------|------------------------------------------|



|-12h17p12-------17-12--------16-12--------16-12------------------------|
|----------12----------12-----------12-----------12---------------------|
|-------------14----------14-----------13-----------13------------------|
|-----------------------------------------------------------------------|
|-----------------------------------------------------------------------|
|-----------------------------------------------------------------------|


Repeat intro
chorus
end




-------------------------------------------------------------------------
-------------------------------------------------------------------------
-------------------------------------------------------------------------
-------------------------------------------------------------------------
-------------------------------------------------------------------------
-------------------------------------------------------------------------



-------------------------------------------------------------------------
-------------------------------------------------------------------------
-------------------------------------------------------------------------
-------------------------------------------------------------------------
-------------------------------------------------------------------------
-------------------------------------------------------------------------



-------------------------------------------------------------------------
-------------------------------------------------------------------------
-------------------------------------------------------------------------
-------------------------------------------------------------------------
-------------------------------------------------------------------------
-------------------------------------------------------------------------



-------------------------------------------------------------------------
-------------------------------------------------------------------------
-------------------------------------------------------------------------
-------------------------------------------------------------------------
-------------------------------------------------------------------------
-------------------------------------------------------------------------



-------------------------------------------------------------------------
-------------------------------------------------------------------------
-------------------------------------------------------------------------
-------------------------------------------------------------------------
-------------------------------------------------------------------------
-------------------------------------------------------------------------



-------------------------------------------------------------------------
-------------------------------------------------------------------------
-------------------------------------------------------------------------
-------------------------------------------------------------------------
-------------------------------------------------------------------------
-------------------------------------------------------------------------



-------------------------------------------------------------------------
-------------------------------------------------------------------------
-------------------------------------------------------------------------
-------------------------------------------------------------------------
-------------------------------------------------------------------------
-------------------------------------------------------------------------



-------------------------------------------------------------------------
-------------------------------------------------------------------------
-------------------------------------------------------------------------
-------------------------------------------------------------------------
-------------------------------------------------------------------------
-------------------------------------------------------------------------



-------------------------------------------------------------------------
-------------------------------------------------------------------------
-------------------------------------------------------------------------
-------------------------------------------------------------------------
-------------------------------------------------------------------------
-------------------------------------------------------------------------



-------------------------------------------------------------------------
-------------------------------------------------------------------------
-------------------------------------------------------------------------
-------------------------------------------------------------------------
-------------------------------------------------------------------------
-------------------------------------------------------------------------



-------------------------------------------------------------------------
-------------------------------------------------------------------------
-------------------------------------------------------------------------
-------------------------------------------------------------------------
-------------------------------------------------------------------------
-------------------------------------------------------------------------



-------------------------------------------------------------------------
-------------------------------------------------------------------------
-------------------------------------------------------------------------
-------------------------------------------------------------------------
-------------------------------------------------------------------------
-------------------------------------------------------------------------



-------------------------------------------------------------------------
-------------------------------------------------------------------------
-------------------------------------------------------------------------
-------------------------------------------------------------------------
-------------------------------------------------------------------------


=======================================================================
h = hammeron                                           
p = pulloff                   
/\ = slide                                    
x = ghost note                                    
t = tap (right hand)           
~ = vibrato                     * = picked harmonic
bf = bend full                  tr = trill
rb = release bend               p.s. = pick scrape
dive = dive with bar            b = bend / step written over note
% = repeat bar                  + = natural harmonic
========================================================================
Theeman@iamit.com
  development and support by
dmitry ivanov