rock
 
|tablatures   |lyrics   |discussion forums   |more tabs @ XGuitar.com

Yngwie Malmsteen tabs

Andante guitar tab

         Title : "Andante"
        Artist : Yngwie Malmsteen
         Album : Concerto Suite
Transcribed by : Vince    Vincent.Simart@wanadoo.fr

cd time 0.54-1.31

e-10p-7---7-10-9p-6---9---|
b------7-7---------7-7----|    repeat one time
g-------7-----------6-----|


e-10p-7---7-10-12p-9-----12-14p-10------10-12p-9-----12-14p-10------10--|
b------7-7----------10-10---------10--10--------10-10---------10--10----|
g-------7-------------9-------------11------------9-------------11------|


e-14p-11------14-15p-12------15-14p-11------14-15p-12------12-----------|
b-------12--12---------12--12---------12--12---------12--12-------------|
g---------11-------------12-------------11-------------12---------------|


e-16p-13------13-19p-14------14-19p-14------14--18p-14------14-21--]
b-------15--15---------14--14---------14--14----------14--14-------]
g---------16-------------16-------------16--------------15---------]
  development and support by
dmitry ivanov