rock
 
|tablatures   |lyrics   |discussion forums   |more tabs @ XGuitar.com

Yngwie Malmsteen tabs

Allegro guitar tab

         Title : "Allegro"
        Artist : Yngwie Malmsteen
         Album : Concerto Suite
Transcribed by : Vince    Vincent.Simart@wanadoo.fr

cd time 0.00-0.24

e-14-12-11---------------------------------------------------------------|
b---------13-12-10-------------------------------------------------------|
g-----------------12-11-9-8----------11-9-8------------------------------|
d--------------------------10-9-7----------10-9-7------------------------|
a--------------------------------10-9------------10-9-7-6----------------|
E--------------------------------------------------------8-7-5-3-2-0-----|

d-----7-9-10-9-7h-9p-9-9-7h-9p-7-5-7-5-4-5-4------7-9-10-9-7h-9p-7-------|
a-9-10---7------------6-----------3-----2---7-9-10---7------------6------|

e--------------------------------------------------------------------------------12--]
b--------------------------------------------------------------8p-7h-8-12p-11h-12----]
g----------------------------------------------4p-3h-3-9p-8h-9-----------------------]
d-9-7h-9p-7-5--7-5h-7p-5-4-5-4--2p-1h-2-5p-4h-5--------------------------------------]
a------------3------------2----------------------------------------------------------]

e-8-12-11-12-8-12-11-12-7-12-11-12-7-12-11-12---12-11-12---12-11-12-12-11-12-12-11-12-]
b---------------------------------------------10--------10---------8--------8---------]

e--11-9-11-11-9-11-12-11-12-12-11-12-14-12-11-------------------------------]
b-7-------7-------8--------8-----------------13-12-10-----------------------]
g----------------------------------------------------12-11-9-8--------------]
d-------------------------------------------------------------10-9-7--------]
a-------------------------------------------------------------------10-9-6--]
  development and support by
dmitry ivanov