rock
 
|tablatures   |lyrics   |discussion forums   |more tabs @ XGuitar.com

Van_halen tabs

Without You guitar tab

Van Halen - Without You

Tabbed by Jared Davis

Intro (with drums)
|------------------------------------
|------------------------------------
|------------------------------------
|------------------------------------
|------------------------------------
|----------3-3----------3-3----------
 <--------palm-mute----------------->

Verse
|------------------------------------
|------3--------3--------3-----------
|------2-2------2--------2-2---------
|------0-2-XXXX-0-2-XXXX-0-2---------
|-0-XX---0-XXXX---2-XXXX---0-0-0-----
|-0-XX-----XXXX---0-XXXX--------3p1p0

Pre-chorus
|-----------------------
|-----------------------
|-222220XXXX-222220XXXXX
|-222220XXXX-222220XXXXX
|-----------------------
|-----------------------

|------------------------
|------------------------
|-222220XXXX-222220X-----
|-222220XXXX-222220X-----
|-------------------3-4b5
|------------------------

|-----------------------
|-----------------------
|-222220XXXX-222220\\\\\\\\\\
|-222220XXXX-222220\\\\\\\\\\ <---pick scrape
|-----------------------
|-----------------------

|-------------------------
|-------------------------
|-------------------------
|-------------------------
|-------------222333444555
|-222333444555------------

Chorus
|------------3--------------------------------
|-3----------3----------3---------------------
|-2----------0----------2----------2----------
|-0---------------------0----------2----------
|----------------------------------0----------
|---------------------------------------------
Thats all i know for now.
  development and support by
dmitry ivanov