rock
 
|tablatures   |lyrics   |discussion forums   |more tabs @ XGuitar.com

Van_halen tabs

Without You bass tab

Song: Without You
Band: Van Halen (Eddie Van Halen, Alex Van Halen, Michael Anthony, Gary Cherone)
Album: VH3
Tabber: Jordash - ktulu@ultra.net.au



Verse:



G---------------

D---------------

A-0-0-3-0-0-5-3-

E---------------



This part comes at the end of the verse:



G---------

D-0-0-----

A-----0-0-

E---------





Pre-Chorus:



G-----------------

D-----------------

A-2-2-2-2-0-0-0-0-

E-----------------



 "and maybe theres a way..."



G-------------

D-------------

A-------------

E-2-2-2-3-3-3-



Chorus:



G-----------------

D-0-0-----0-0-----

A-----0-0---------

E-------------0-0-



Solo-Bridge:



G-----

D---2-

A-3---

E-----



This part is after the solo where Eddie plays some mutes when everything

else stops.



G-------------

D-------------

A-------0-0-0-

E-3-3-3-------



Ending Part:



G-------------------------

D-----------------0-0-0-0-

A-0-0-0-0-----------------

E---------3-3-3-3---------
  development and support by
dmitry ivanov