rock
 
|tablatures   |lyrics   |discussion forums   |more tabs @ XGuitar.com

Van_halen tabs

Why Cant This Be Love guitar tab

Why Can't This Be Love
by Van Halen
from the album 5150

\/ - trem bar
b - bend


riff during verses

----------------------------------------------------------------------------------
----------------------------------------------------------------------------------
----------------------------------------------------------------------------------
---------------------------2------------------------------------------------------
--5---5---3----5----3--0---0----3----0----0---2h3---------0--3p0h2p0--------------
-----------------------------------------------------1-----------------3---0---0--


-----------------------------------------------------------------------------------
-----------------------------------------------------------------------------------
-----------------------------------------------------------------------------------
--------------------------------------------------2--------------------3----3------
--------------2h3h5--5p3h5------5----0----3h5p3-------3---0----0h2h3-----------3---
--3p1--1--0------------------------------------------------------------------------


-----------------------------------------------------------------------------------
-----------------------------------------------------------------------------------
-----------------------------------------------------------------------------------
-------------------------------------------3p0------------------2---3---3----------
---0---2p0--------------------------------------1---------1--5----------------3p0--
-------------3----0----3p1--1p0-0-0---0------------1-------------------------------


------------------------------------------------------------------------------------
------------------------------------------------------------------------------------
-----------------2---3---3----3------------3-------------0--------------------------
----------3--5-------------------3p1---------------1h3-------3---3--3------5p3------
-------3-------------------------------1-------1-----------------------3--------5---
--1---------------------------------------------------------------------------------


---------------
---------------
---------------
---------------
--5---2h3p2h3--
---------------


chorus

----------------------------------------------------------------------------------
----------------------------------------------------------------------------------
----------------------------------------------------------------------------------
----------------------------------------------------------------------------------
-2--3---2---3-----3---2--3--3p2--3-3p2--2-3---5--3---2---3---2---3---2--3---5--3--
---------------3------------------------------------------------------------------


----------------------------------------------------------------------------------
----------------------------------------------------------------------------------
----------------------------------------------------------------------------------
----------------------------------------------------------------------------------
-2--3--2--3---2--3----5--3---2---3---2--3------3----2---3---2---3---2---3--3p2h3--
--------------------------------------------3-------------------------------------

--------------------------------------------------
--------------------------------------------------
---------------------------------------2----------
-----------------------2--------------------------
--3h5---3---2p0--0-----0----0---3h5---------3h5---
--------------------3-----------------------------

solo

-------------------13-15--------------------------13--------------
-13--15--13---15---14-16----11--13--11------------14---15---13----
-13--15--13---15------------11--13--11--13p11h13-------15---13----
------------------------------------------------------------------
------------------------------------------------------------------
------------------------------------------------------------------

                                                        \/    \/    \/
----------------------------20---------------------------------------------
-15p13-------15p13h15\18-18-20-20--\10--11------13p11---13b---13b---13b----
-15p13h15p13h15p13h15\18-18-20-20--\10--11--11--13p11----------------------
---------------------------------------------------------------------------
---------------------------------------------------------------------------
---------------------------------------------------------------------------

     \/                                             \/ \/  \/
-----------------13----x--15--------------------------------------
--13h15p13h15----14----x--16-----11---13--------------------------
--13h15p13-----------------------11---13p11----10\15p13p11\10/----
------------------------------------------------------------------
------------------------------------------------------------------
------------------------------------------------------------------

Van Halen Guitar Tablature Archive
  development and support by
dmitry ivanov