rock
 
|tablatures   |lyrics   |discussion forums   |more tabs @ XGuitar.com

Van_halen tabs

When Its Love guitar tab

Van Halen - When Its Love
Transcribed by Lucas Haley


Drop D tuning.


Intro:
-2---3----5-|-------------|----------------|--------------|--------
-3----------|-----5-------|---7----8---10--|-----8--------|--------
------------|----------6--|---7------------|---------7----|--------
-0----------|-------------|----------------|--------------|--------
------------|-0-----------|---9------------|-10-----------|--------
------------|-------------|----------------|--------------|--------


Repeat this. Then:



-2---3---5-|--5------------|--2----3---5--|--5---3-----3--------|-----
-3---------|------5--5-----|--3-----------|---------------3-----|-----
-----------|-----------6---|--------------|------------------4--|-----
-0---------|-------------7-|--4-----------|--5------------------|-----
-----------|--0------------|--------------|---------------------|-----
-----------|---------------|--------------|---------------------|-----


Repeat this too. End with C9 and F5.

PArt 1:

-----------------------|--------------------------
-----------------------|-----------5-----5--------
-7----------5-------7--|-----------5-----5--------
-5------5-7-5-----7-7--|-------5-7-7-----7--------
-5--5------------------|--------------------------
-0--0-------3-------5--|--5--5-----7-----7--------

Repeat this four times.

Verse 1:

Everybodys looking for something

Something to fill in the holes

We think a lot but dont do much
about it
til things get out of control

Chorus:

D                       A

How do i know when its love
        Bm                     E  F#  A

I cant tell you but it lasts forever


How does it feel when its love

Its just something you feel together

When its love



Verse 2:

You look at every face in the crowd

Some shine and some keep you guessing

Waiting for someone to come into focus

Teach you your final love lesson


Chorus

Bridge, Chorus out.
I cant be bothered to figure out the bridge yet.
The outro goes:
 
D    A    D/F#    G

With nice backgroud vocals.



Supplied by Greg J. Musi (musi+@pitt.edu)
  development and support by
dmitry ivanov