rock
 
|tablatures   |lyrics   |discussion forums   |more tabs @ XGuitar.com

Van_halen tabs

Unchained bass tab

Van Halen
Unchained

Transcribed By: Ryan Huntsman  (IbanezBassMX)
Email: Ryan82184@aol.com

Tunning: tune down one half step
low to high: (Db,Ab,Db,Gb)

Gb--------
Db--------
Ab--------
Db-12/0~--

Gb------------------------------------------------------------------------------
Db------------------------------------------------------------------------------
Ab----------------------------------------------------------------3--3--3--3-4--
Db-0-0-0-0--0-0-0-0--0-0-0-0--0-0-0-0--0-0-0-0--0-0-0-3--3-3-3-3----------------

Gb-------------------------------------------------------
Db-------------------------------------------------------
Ab-5-----------------------------------------------------
Db---0-0-0--0-0-0-0--0-0-0-0--0-0-0-0--0-0-0-0--0-0-0-3--

Gb------------------
Db-------------10/--
Ab---------3-3------
Db-3-3-3-3----------

Verses  (0:28)		   (1:08)
Gb-------------------	   Gb-------------------
Db-------------------	   Db-------------------
Ab-------------------	   Ab-5-----------------
Db-0-0-0-0--0-0-0-0--	   Db---0-0-0--0-0-0-0--

Gb--------------------
Db--------------------  X6
Ab--------------------
Db-0-0-0-0---0-0-0-0--

Bass Fill 1  (0:40, 1:21)
Gb--------------------
Db--------------------
Ab--------------------
Db-0-0-0-0--0-0--12/--

Pre-Chorus  (0:42, 1:22)
Gb---------------------------------------------------------------------------
Db---------------------------------------------------------------------------
Ab---------------------------------------------------------------------------
Db-5--5--5--5--5--5--5--5---5--5--5--3--3--3--3--3---3--3--3--3--3--3--3--3--

Gb---------------------------------------------------------------------------
Db---------------------------------------------------------------------------
Ab---------------------------------------------------------------------------
Db-3--7--7--7--7--7--7--7---7--7--7--7--7--7--7--5---5--5--5--5--5--5--5--7--

Gb------------------------
Db------------------------
Ab------------------------
Db-----6----5----3----0~--

1st and 2nd Choruses  (0:54, 1:35)
Gb--------------------------------------
Db--------------------------------------
Ab--------------------------------------
Db-0-0-0-0--0-0-0-0---0-0-0-0--0-0-0-0--

Gb------------------------------------------------------------------------------
Db------------------------------------------------------------------------------
Ab----------------------------------------------------------------3--3--3--3-4--
Db-0-0-0-0--0-0-0-0--0-0-0-0--0-0-0-0--0-0-0-0--0-0-0-3--3-3-3-3----------------

Gb-------------------------------------------------------
Db-------------------------------------------------------
Ab-5-----------------------------------------------------
Db---0-0-0--0-0-0-0--0-0-0-0--0-0-0-0--0-0-0-0--0-0-0-3--

Gb------------------
Db-------------10/--
Ab---------3-3------
Db-3-3-3-3----------

Bass Fill 2  (1:06)
Gb------------------
Db------------------
Ab---------3-3-3-5--
Db-3-3-3-3----------

Gb-------------------
Db--------------10/--
Ab----------3-3------
Db-3-3-3-3-----------

Guitar Solo  (1:49)
Gb--------------------------------------------------------------------------
Db--------------------------------------------------------------------------
Ab--------------------------------------------------------------------------
Db-5----5-5~----5----5---5-------3------5----5---3-------5-------5---3~--7--

Gb-----------------------------------------------------------------------------
Db-----------------------------------------------------------------------------
Ab-----------------------------------------------------------------------------
Db-7------7---7------7----7--7----5------7----7--5----7-----6----5----3----0~--

Gb------------------------------------------------------------------------------
Db------------------------------------------------------------------------------
Ab----------------------------------------------------------------3--3--3--3-4--
Db-0-0-0-0--0-0-0-0--0-0-0-0--0-0-0-0--0-0-0-0--0-0-0-3--3-3-3-3----------------

Gb-------------------------------------------------------
Db-------------------------------------------------------
Ab-5-----------------------------------------------------
Db---0-0-0--0-0-0-0--0-0-0-0--0-0-0-0--0-0-0-0--0-0-0-3--

Gb------------------
Db-------------10/--
Ab---------3-3------
Db-3-3-3-3----------

Bass Fill 3  (2:13)
Gb-----------------------
Db-----------------------
Ab-------------3--3\\12/--
Db-3--3--3--3------------

Interlude  (2:15)
Gb-------------\\14-14-14-14-14-14--14~\\16/14--------------14-------6\\--
Db----------------------------------------------------14---------------
Ab-0~~~~~~~--------------------------------------0~~-------------------
Db---------------------------------------------------------------------

Gb-14----14----14-----14-----
Db---------------------------  X4
Ab----12----12----12-----12--
Db---------------------------

Gb-14------14------14------14-------14-----------------------------------------------
Db-----------------------------------------------------------------------------------
Ab-----12------12------12------12-------12-12-12-12-12-12-12--12-12-12-12--12--------
Db----------------------------------------------------------------------------12/0~--

Gb------------------------------------------------------------------------------
Db------------------------------------------------------------------------------
Ab----------------------------------------------------------------3--3--3--3-4--
Db-0-0-0-0--0-0-0-0--0-0-0-0--0-0-0-0--0-0-0-0--0-0-0-3--3-3-3-3----------------

Gb-------------------------------------------------------
Db-------------------------------------------------------
Ab-5-----------------------------------------------------
Db---0-0-0--0-0-0-0--0-0-0-0--0-0-0-0--0-0-0-0--0-0-0-3--

Gb-------------------------------------------
Db-------------------------------------------
Ab-----------------------------3--3--3--3-4--
Db-0-0-0-0--0-0-0-3---3-3-3-3----------------

Outro-Chorus  (2:54)
Gb--------------------------------------------------------------------------------
Db--------------------------------------------------------------------------------
Ab-5-------------------------------5/-------------------------------3--3--3--3-4--
Db---0-0-0-0-0-0-0-0--0-0-0-0--0-0------0-0-0-0--0-0-0-3---3-3-3-3----------------

Gb-----------------------------------------------------------------
Db-----------------------------------------------------------------
Ab-5---------------------------------------------------------------
Db-----0---0---0---0---0---0---0----0---0---0---0---0---0---0---0--

Gb------------------------------------------------------------------------------
Db------------------------------------------------------------------------------
Ab---------------------------3-3--3----------3-3-3---------------3--3--4--------
Db-0-0-0-0--0--0--12~~/3-3-3--------3~-3-3-3-------3~---3--3--3-----------0~~~--

Thats all of it. I wrote it all out so you could see it. GW
This tab is 100% correct.
Please rate this tab, Thanks.
  development and support by
dmitry ivanov