rock
 
|tablatures   |lyrics   |discussion forums   |more tabs @ XGuitar.com

Van_halen tabs

Tora! Tora! guitar tab

Tora! Tora! by Van Halen
from the album Women And Children First

T - tap
b - bend
tr - trill
                                                                        T
-------------------------------------------------------------------------------
----9--------------------------------------------------------------------------
----9--------------------------------------------------------------------------
----9--------------------------------------------------------------------------
----7--------------8-------7----------------------7--8h10p8h10p8h10p8--12p8h10-
----0----------7---------------7------0-------7--------------------------------


   T      T        T
-------------------------------------------------------------------------------
---------------------------9---------------------------------------------------
---------------------------9---------------------------------------------------
---------------------------9------------3--------------------------------------
-12p8h10-12p8h10--12p7h8---7------------3---------------------------------7----
---------------------------0-----7------1-------7b---(7)p0b------------7-------                                                                                                 
                                                                                                                                                                                                                                                                                                                                                                                                                bend behind nut

                     T      T        T        T
-------------------------------------------------------------------------------
-------------------------------------------------------------------------------
---------------------------------------------------------9---------10----------
---------------------------------------------------------9---------10----------
--8h10p8h10p8h10p8--12p8h10-12p8h10-12p8h10--12p7h8------7----------8---(8)\3/-
---------------------------------------------------------0-------7-------------

                 T
--------------------------------------------------------------------------------
------7h9p7h9p7/16------------------------------10----------9-------------------
-----------------------7tr(9)-----8tr(10)-------------------9--------10---------
------------------------------------------------------------9--------10---------
------------------------------------------------------------7---------8---------
-----------------------------------------------------x---x--0-----7-------------


---------------------------------------------------
---------------------------------------------------
-------------------9-------------------------------
-------------------9-------------------------------
------8h10p8\7h8---7---------7--8h10p8-----(8)\6---
-------------------0------7------------------------


Van Halen Guitar Tablature Archive
  development and support by
dmitry ivanov