rock
 
|tablatures   |lyrics   |discussion forums   |more tabs @ XGuitar.com

Van_halen tabs

Top Of The World guitar tab

TOP OF THE WORLD 
For Unlawful Carnal Knowledge
VAN HALEN


intro
|--0--------0--------0---|-------0-----0--------0|-------0-----0-----0--0---|
|--5--5--5--4--4--5--2---|-2--2--5--5--4--4--0--0|-0--0--5--5--4--4--5--5---|
|------------------------|-----------------------|--------------------------|
|------------------------|-----------------------|--------------------------|
|------------------------|-----------------------|--------------------------|
|------------------------|-----------------------|--------------------------|


|------------------------|--0--------0--------0--|-------0-----0--------0---|
|--5--4----2--2--4--5----|--5--5--5--4--4--5--2--|-2--2--5--5--4--4--0--0---|
|--4--4----2--2--4--4----|-----------------------|--------------------------|
|--6--4----2--2--4--6----|-----------------------|--------------------------|
|------------------------|-----------------------|--------------------------|
|------------------------|-----------------------|--------------------------|


|-------0----------------|-----------------------|--------------------------|
|-0--0--5--5--4--4h5-----|-----------------------|--------------------------|
|------------------------|---6-6---4-4-4---2-2---|--------------------------|
|------------------------|---6-6---4-4-4---2-2---|--------------------------|
|------------------------|---4-4---2-2-2---0-0---|----------------0---0--0--|
|------------------------|-----------------------|--------------------------|



|------------------------|-----------------------|--------------------------|
|------------------------|-----------------------|--------------------------|
|----9--9-----9--9-----7-|-----------------------|--------------------------|
|----9--9-----9--9-----7-|-----------------------|--------------------------|
|-0--7--7--x--7--7--x--5-|------------5--5--5--5-|---2--2-------------------|
|------------------------|-----------------------|-----------------------0--|

verse 
w/ fingers
|------------------------|-----------------------|--------------------------|
|--5--5--5--5--5--5---2--|-5--5--5--5--4---4--0--|-5--5--5--5--5--5--5\-----|
|--4--4--4--4--4--4---2--|-2--2--2--2--2---2--1--|-4--4--4--4--4--4--4\-----|
|------------------------|-----------------------|--------------------------|
|---------------------0--|-----------------------|--------------------------|
|------------------------|--------------------0--|--------------------------|


|------------------------|-----------------------|--------------------------|
|-4--------5--5\7--5-----|--5--5--5--5--5--5---2-|-5--5--5--5--4---4--0-----|
|----4--2----------------|--4--4--4--4--4--4---2-|-2--2--2--2--2---2--1-----|
|------------------------|-----------------------|--------------------------|
|------------------------|---------------------0-|--------------------------|
|---------------------0--|-----------------------|--------------------0-----|

                           w/ pick
|------------------------|-----------------------|--------------------------|
|-5--5--5--5--5--5--5\---|-----------------------|-------------------2------|
|-4--4--4--4--4--4--4\---|-6--6--6---4--4---2----|-------------------2------|
|------------------------|-6--6--6---4--4---2----|-------------------2------|
|------------------------|-4--4--4---2--2---0----|-0--0-0-0--0-0-0----------|
|------------------------|-----------------------|--------------------------|


|------------------------|-----------------------|-------------5--4--2------|
|-4---5-------5--4--4----|-2--2------------------|-------------5--5--3------|
|-4---4-------4--4--4----|-2--2------------------|-------------4--4--2------|
|-4---6-------6--4--4----|-2--2------------------|--------------------------|
|---0-----0--------------|----0--------------0---|--------------------------|
|------------------------|-----------------------|--4--2--0-----------------|

                                                               pick slide
|--------------------2---|-4-----5-----5--5--4---|------2-------------------|
|--------------------3---|-5-----5-----5--5--5---|------3-------------------|
|--------------------2---|-4-----4-----4--4--4---|------2-------------------|
|------------------------|----0-----0------------|--0-----------------------|
|-0--0-0-0--0-0-0--------|-----------------------|-------------x\-----------|
|------------------------|-----------------------|--------------------------|


                           chorus
|------------------------|-----------------------|--------------------------|
|------------------------|--5---4----------5--2--|-------5---4------5--0----|
|------------------------|--4---4----------4--2--|-------4---4------4--1----|
|------------------------|--6---4----------6--2--|-------6---4------6--2----|
|---3--2--1------2-------|-----------------------|-0--0----0----------------|
|-------------------0----|----0------------------|--------------------------|


|------------------------|-----------------------|--------------------------|
|-------5---4------5\----|----5--4---7--5--4-----|---------4------5--2------|
|-------4---4------4\----|----4--4---4--4--4-----|---------4------4--2------|
|-------6---4------6\----|---------4-------------|---------4------6--2------|
|------------------------|-0---------------------|--------------------------|
|-0--0----0--------------|--------------------0--|---0--0-------------------|


|------------------------|-----------------------|-----------------5--------|
|-------5---4----5--0----|--5---4------5\--------|-5--5---5---4----5--------|
|-------4---4----4--1----|--4---4------4\--------|-4--4---4---4----2--------|
|-------6---4----6--2----|--6---4------6\--------|-4--4---4---4----2--------|
|-0--0----0--------------|-----------------------|-2--2---2---2----0--------|
|------------------------|----0------------------|--------------------------|


|-----------------0------|-----------------------|
|-----------------0------|-----------------------|
|-----------------2------|-----------------------|
|-----------------2------|-----------------------|
|-----------------0------|-----------------------|
|------------------------|-------------------0---|
  development and support by
dmitry ivanov