rock
 
|tablatures   |lyrics   |discussion forums   |more tabs @ XGuitar.com

Van_halen tabs

The Full Bug guitar tab

The Full Bug
by Van Halen
from the album Diver Down

h - hammer on
p - pull off
b - bend
r - release bend
A.H. - Artificial Harmonic

acoustic guitar 

w/ fingers
---------------------------------------------------------------------------------
---------------------------------------------------------------------------------
---------------------------------------------------------------------------------
-----2-------2------2------2-----4-------5---------------2------2-----4------5---
---------------------------------------------4-----------------------------------
-0---0----0-----0---0---0-----0-----0----0-------3p0--0--0---0-----0-----0---0---


------------------------------------------------------------------------------------
------------------------------------------------------------------------------------
--------------------------------------------------1---------------------------------
-------------2------2-----4-------5-------2--------------2----4------5--------------
-4------------------------------------4---------------------------------4-----------
-----3p0--0--0---0-----0-----0----0-------0---0-------0----------0---------3p0--0---


-------------------------------------------------------------------------------------
-------------------------------------------------------------------------------------
-1-----------------------------------------------------------------------------------
--------2----4------5-------2-------2-----4------5--------2------2-------2-----------
------------------------------------------------------4------------------------------
-----0----------0------0h4------0---0--------0----------------0-------0-------3---4--

                                                                     electric guitar
                                                                         \/ trem bar
-------------------------------------------------------------------------------------
-------------------------------------------------------------------------------------
--------------------------------------------------------------------------9----------
--------------2-------2-----4------5------2-------2------2-----4----------9----------
--------------------------------------4-----------------------------------7--------5-
-5---3p0--0---0----0-----0-----0----------0---0---0---0-----0-----0------------------

A.H.---------------------]    A.H.---]                A.H.---------------]
-------------------------------------------------------------------------------------
-------------------------------------------------------------------------------------
--------------------------------------------5p0--------------------------------------
---------------------------------------0h5-------5p0---------------------------------
-7--5--7--5--7--5---7--5----7---5---7-----------------0--5--7--5--7--5--7--5p0-----5-
--------------------------------------------------------------------------------0----

A.H-------]  \/trem bar
-------------------------
-------------------------
-------------------------
-------------------------
-7--5b--5b---0-----5-----
-------------------------


verses riff
---------------------------------------------------------------------------0---
---------------------------------------------------------------------------0---
-------------------------------------------------------------------------------
------------------------------0----2------2------2------2---------0h2p0h2------
---7------7----7------7-------0----0---0-----0---0---0--0----------------------
---0---0-------0---0-----------------------------------------0-----------------


-----------------------0----------------------0--------
-----------------------0----------------------0--------
----------0-------------------------2brp0--------------
-0h2p0h2------0h2p0h2------0h2p0h2---------2-----------
---------------------------------------------------5---
-------------------------------------------------------

  development and support by
dmitry ivanov