rock
 
|tablatures   |lyrics   |discussion forums   |more tabs @ XGuitar.com

Van_halen tabs

Take Your Whiskey Home guitar tab

Take Your Whiskey Home
Van Halen
from the album Women and Children First

tune down 1/2 step

main acoustic riff

----------------------------------------
----------------------------------------
----------------------------------3-3---
--0-0h3p0-----3--5---3--5-0-5-3-5-3-3---
----------------------------------------
----------3-3---------------------------

variation on main riff

------------------------------------------------------------------------
-----------------------------------------6-6---5--3---------------------
----------------------------------3-3----5-5---5--3-----3---3-----------
--0-0h3p0-----3--5---3--5-0-5-3-5-3-3-------------3---0h5---3-----------
---------------------------------------------------------------3--1-----
----------3-3-----------------------------------------------------------

transition to electric guitar

------------------------------------------------------------------------
---------------------------------------------------12------5------------
-------------------3-------------------------3-----12------5------------
--5-------3--4--5--3------5------0--3--4--5--3-----12------5----0--3h4--
--5-----------------------5------------------------10------3------------
--3-----------------------3---------------------------------------------


------------------------------------------------------------------------------
-------------------------------------------------------------12-12-----12-12--
-----3-------------------------------3---3h5p3h5p3h5p3h5p3---12-12-----12-12--
--5--3--------5----------0--3--4--5--3-----------------------12-12-----12-12--
--------------5----------------------------------------------10-10-----10-10--
--------------3---------------------------------------------------------------

main electric riff 

--------------------------------
--------------------------------
----------------------------3---
-------3--5---3--5--5p3--5--3---
--------------------------------
---3----------------------------

variation on main riff

---------------------------------
---------------------------------
------------------------------5--
-------5--7---5--7---7--5--7--5--
---------------------------------
---5-----------------------------
  development and support by
dmitry ivanov