rock
 
|tablatures   |lyrics   |discussion forums   |more tabs @ XGuitar.com

Van_halen tabs

Sunday Afternoon In The Park guitar tab

Sunday Afternoon In The Park
Van Halen--Fair Warning--
Tabbed By: Doug Swenson  metfan@gte.net


I read this tab out of the book in a guitar store
....this is what i remember
.....it's a start
...if i get the rest i will re tab it and send it again.
This is all correct except i may be wrong about the the part with the *** next to it.
It is kinda a guess.

---------------------------|------------------------------
---------------------------|------------------------------
---------------------------|------------------------------
------------------------10-|------------------------10-9--
------9---9-10-9-7---10----|------9---9-10-9-7---10-------
--0-7---7----------8-------|--0-7---7----------8----------

---------------------------|
---------------------------|
---------------------------|
------7----11-7---------8--|
----7---7-------7-----9----|
--0---------------7-9------|
                ***********

Have fun!

  development and support by
dmitry ivanov