rock
 
|tablatures   |lyrics   |discussion forums   |more tabs @ XGuitar.com

Van_halen tabs

Source Of Infection guitar tab

Source Of Infection
By Van Halen 
from the album OU812

t - tap
h - hammer on
p - pull off
b - bend
r - release bend

intro
  t       t       t      t       t       t      t       t       t      t
-----------------------------------------------------------------------------------
-----------------------------------------------------------------------------------
-----------------------------------------------------------------------------------
-----------------------------------------------------------------------------------
--12p0h7-12p0h10-12p0h7-12p0h10-12p0h5h7-12p0h7-12p0h10-12p0h7-12p0h10-14p0h7h10---
-----------------------------------------------------------------------------------

  t      t      t       t       t         t      t       t      t      t
-----------------------------------------------------------------------------------
-----------------------------------------------------------------------------------
-----------------------------------------------------------------------------------
-12p0h7-12p0h10-12p0h7-12p0h10-14p0h7h10-12p0h7-12p0h10-12p0h7-12p0h10-14p0h7h10---
-----------------------------------------------------------------------------------
-----------------------------------------------------------------------------------


  t      t       t      t       t         t     t       t      t       t   
-----------------------------------------------------------------------------------
-----------------------------------------------------------------------------------
-----------------------------------------------------------------------------------
-----------------------------------------------------------------------------------
-12p0h7-12p0h10-12p0h7-12p0h10-14p0h7h10-12p0h7-12p0h10-12p0h7-12p0h10-14p0h7h9----
-----------------------------------------------------------------------------------


  t     t     t      t     t        t       t      t     t       t       t 
-----------------------------------------------------------------------------------
-----------------------------------------------------------------------------------
-----------------------------------------------------------------------------------
------------------------------------12p5h9-14p5h7-12p5h9-14p5h7-12p5h7h9-----------
-10p3h5-9p3h7-10p3h5-9p3h7-10p3h5h7--------------------------------------12p5h9----
-----------------------------------------------------------------------------------


  t      t      t      t         t      t        t      t  
-----------------------------------------------------------------------------------
-----------------------------------------------------------------------------------
-----------------------------------------------------------------------------------
-----------------------------------------------------------------------------------
-14p5h7-12p5h9-14p5h7-12p5h7b---12p7h11-12p7h11-12p7h11-12p11brbr-----(11)\--------
-----------------------------------------------------------------------------------


 t      t       t        t       t        t        t      t        t     
-----------------------------------------------------------------------------------
-----------------------------------------------------------------------------------
-----------------------------------------------------------------------------------
-----------------------------------------------------------------------------------
-12p0h4-12p0h5-12p0h5h9-12p0h5h9-12p5h7h9-12p4p0h4-12p0h5-12p0h5h9-12p0h7h11-------
-----------------------------------------------------------------------------------


  t            t     t       t       t         t         t      t      t  
-----------------------------------------------------------------------------------
-----------------------------------------------------------------------------------
-----------------------------------------------------------------------------------
-----------------------------------------------------------------------------------
-14p12p0h7h11-12p0h4-12p0h5-12p0h5h9-12p0h7h11-14p12p11-12p0h4-12p0h5-12p0h5h9-----
-----------------------------------------------------------------------------------


 t          t        t      t      t       t      t
-----------------------------------------------------------------------------------
-----------------------------------------------------------------------------------
------------------------------------------------------------9--9--9--9--9----9\----
------------------------------------------------------------9--9--9--9--9----9\----
-12p0h7h11-14p12p11-12p0h4-12p0h5-12p0h5h9-12p5h9-12p5h9p5--7--7--7--7--7----7\----
-----------------------------------------------------------------------------------


----------------------------x------------------------x------------------------------
-----5---6--7----------x----x------------------------x------5---6--7----------------
-----5---6--7----------x----x------------------------x------5---6--7----------x---x-
-----5---6--7----------x----x------------------------x------5---6--7----------x---x-
-0---3---4--5----x---x-x---------5-0-4--3----x---x-------0--3---4--5---x---x--x---x-
------------------------------------------------------------------------------------


--------------------------------------------------x---------------------------------
------------------8---------5---6--7----------x---x----------------------x--x-------
------------------7---------5---6--7----------x---x----------------------x--x-------
------------------6---------5---6--7----------x---x----------------------x--x-------
------------------7-----0---3---4--5----x---x-x---x---0--5-0-4--3----x---x--x---0---
-5---4--3---------------------------------------------------------------------------


------------------------x-----------------------------------------------------------
-5---6--7-----------x---x---------------1-------------------------------------------
-5---6--7-----------x---x------2--------0---------------------------2----2---2------
-5---6--7-----------x---x---x--2----------------------------4---4---4p2--4---2------
-3---4--5-----x---x-x---x---x--0----------------------------4---4------------0------
-----------------------------------4----3------/17\----2--------2-------------------
  development and support by
dmitry ivanov