rock
 
|tablatures   |lyrics   |discussion forums   |more tabs @ XGuitar.com

Van_halen tabs

So This Is Love bass tab

Song: So This Is Love?
Artist: Van Halen
Album: Fair Warning (1981)

Intro bit
G|----|
D|----|
A|--6-|
E|6---|

Main figure
G|----------------|----------------|----------------|----------------|
D|----------------|----------------|----------------|----------------|
A|4-4-4-4-4-4-4-4-|4-4-4-4-4-4-4-4-|2-2-2-2-2-2-2-2-|----------------|
E|----------------|----------------|----------------|4-4-4-4-4-4-4-4-|


Second figure
G|----------------|----------------|----------------|
D|----------------|----------------|----------------|
A|2-2-2-2-2-2-2-2-|2-2-2-2-2-2-2-2-|4-4-4-4-4-4-4-4-|
E|----------------|----------------|----------------|

G|----------------|----------------|----------------|
D|----------------|4-4-4-4-4-4-4-4-|6-6-6-6-6-6-6-6-|
A|4-4-4-4-4-4-4-4-|----------------|----------------|
E|----------------|----------------|----------------|


Third figure
G|----|----|----|----|----|----|----|----|
D|----|----|----|----|----|----|----|----|
A|4---|4---|4---|4---|4---|4---|4---|4---|
E|----|----|----|----|----|----|----|----|

G|----|----|----|------|
D|----|----|----|666666|
A|44--|44--|44--|------|
E|---2|---2|---2|------|


Listen to the song to get the rhythm, order of "riffs", and hear little
variations that Michael Anthony plays.  Some parts might be a bit off,
but this should be a good start.
  development and support by
dmitry ivanov