rock
 
|tablatures   |lyrics   |discussion forums   |more tabs @ XGuitar.com

Van_halen tabs

Sinner's Swing guitar tab

Sinner's Swing
by Van Halen
from the album Fair Warning


Drop D tuning down a half step

main riff during verses
-------------------------------------------------------
-------------------------------------------------------
-------2-----------2---------------------2-------------
-------0-----------0---------------------0-------------
--0h3---------0h3-----------------0h3p0------3----5----
---------------------------------------------3----5----

chorus riff
-------------------------------------------------------------
------9--9---9---9---9---9---9---x---------------------------
------9--9---9---9---9---9---9---x/14-----12----\11-----\9---
------9--9---9---9---9---9---9---x---------------------------
------7--7---7---7---7---7---7---x/12-----10----\9------\7---
--p0---------------------------------------------------------
  development and support by
dmitry ivanov