rock
 
|tablatures   |lyrics   |discussion forums   |more tabs @ XGuitar.com

Van_halen tabs

Secrets guitar tab

Secrets
by Van Halen
from the album Diver Down

drop D tuning
down 1/2 step

h - hammer on
p - pull off
() - harmonic

use a 12 string electric guitar


intro (repeat 4 times)
------------------------------
------------------------------
--2----2----2----2----2----2--
--2----2----2----2----2----2--
--0----0----0----0----0----0--
------------------------------

main riff
--------5---5-----------5----5-------5--------------------------------3---3----------
--------8---7-----------5----5-----------5---------5------------------6---5----------
--------7---7-----------7----6----------------6--------6--------------5---5----------
--------0---0-----------0----0----------------------------------------0---0----------
-----------------------------0-------------------------------------------------------
-0--0----------0--0--0--------------------------------------0--0--0----------0--0--0-


--3---3----------------------------------------
--3---3----------------------------3-----------
--5---4--------------------0-------2-----------
--0---0-----------------0----------0-----------
---------------0--2--3--------2p0--------------
--------------------------------------0--0--0--


--5---5-----------5----5-------5--------------------------------3---3----------
--8---7-----------5----5-----------5---------5------------------6---5----------
--7---7-----------7----6----------------6--------6--------------5---5----------
--0---0-----------0----0----------------------------------------0---0----------
-----------------------0-------------------------------------------------------
---------0--0--0--------------------------------------0--0--0----------0--0--0-


--3---3-------3---------------3--3--3---
--3---3----------3-----3h5p3--3--3--3---
--5---4-------------4---------3--3--3---
--0---0---------------------------------
----------------------------------------
----------------------------------------


chorus
---3----------------------3--------------------3--------3-----------------------------
---3--3----------------------3-----3--------------3--------3------3--3/5--5-----------
------------------------------------------------------------------4--4/6--6-----------
----------------------------------------0-------------------------5--5/7--7-----------
-------------0--3--2--------------------1---------------------0------------------0--2-
--------------------------------------------------------------------------------------


-----3------------------------3---------------------3-----------------------
--------3------------------------3-----3----------------3------------3------
---------------------------------------------------------------------0------
-----------------------------------------------------------------0----------
-3---------------0--3--2-------------------2--1---------------------------0-
----------------------------------------------------------------------------


----------------------------0-------(5)-----------------------------------
----3/5---------3--3/5---------5---------0-------------3/5-------5--5\3---
----4/6---------4--4/6---------------------------------4/6-------6--6\4---
----5/7---------5--5/7---------------------------------5/7-------7--7\5---
---------0-0-0-----------------------------------0--0------0-0-0----------
--------------------------------------------2/4---------------------------


------------------------
------------------------
------------------------
------------------------
--0--0--0----0-0-0-0-0--
------------------------
  development and support by
dmitry ivanov