rock
 
|tablatures   |lyrics   |discussion forums   |more tabs @ XGuitar.com

Van_halen tabs

Runnin' With The Devil bass tab

Intro/Chorus
|---------------|-------------|-------------|-------------|
|---------------|-------------|-------------|-------------|
|---------------|-------------|-------------|-------------|
|--0--0--0--0---|-0--0--0--12\\|-0--0--0--0--|-0--0--0--0--|

|---------------|-------------|-------------|-------------|
|---------------|-------------|-------------|-------------|
|---------------|-------------|-------------|-------------|
|--0--0--0--0---|-0--0--0--12\\|-0--0--0--0--|-0--0--0--0--|

|---------------|--------------|
|---------------|--------------|
|---------------|--------------|
|--0--0--0--0---|-0--0--0--2-3-|

Verse
|---------------|-------------|-------------|-------------|
|---------------|-------------|-------------|-------------|
|---------------|-------------|-------------|-------------|
|-5-3-5--5--5---|-5--5--5--5--|-5-3-5-5--5--|-5--5--0-----|

|---------------|-------------|-------------|-------------|
|---------------|-------------|-------------|-------------|
|---------------|-------------|-------------|-------------|
|-5--5--5--5----|-3--3--3--3--|-5--5--5--5--|-3--3--0-----|
  development and support by
dmitry ivanov