rock
 
|tablatures   |lyrics   |discussion forums   |more tabs @ XGuitar.com

Van_halen tabs

Romeo Delight guitar tab

                              Romeo Delight
                                Van Halen
                        Women And Children First
                        Transcribed By Jeff Glawe
                                                      tune down 1/2 step


         Slight palm mute     A.H.A.H.  Slight palm mute     A.H.       
E---||------------------------------------------------------------------
B---||------------------------------------------------------------------
G---||*-----------------------------------------------------------------
D---||*------------------------------------------------------7p5--------
A---||---7--7--7--7--7--7--7--p5--5~~~--7--7--7--7--7--7--7-------------
E---||------------------------------------------------------------------
                                                                        

    A.H.   2x  w/muting                         w/muting                
E----------||-----------------------------------------------------------
B----------||-----------------------------------------------------------
G---------*||-----------------------------------------------------------
D---5~~~--*||--9--9--9--9--9--9--9--9--\--7--7--9--9--9--9--9--9--9-----
A----------||--7--7--7--7--7--7--7--7--\--5--7--7--7--7--7--7--7--7-----
E----------||--0--0--0--0--0--0--0--------------0--0--0--0--0--0--0-----
                                                                        

                w/muting                         w/muting               
E-----------------------------------------------------------------------
B-----------------------------------------------------------------------
G---9--\--8--7----------------------------------------------------------
D---7--\--6--7--9--9--9--9--9--9--9--9--\--7--7--9--9--9--9--9--9--9----
A------------5--7--7--7--7--7--7--7--7--\--5--7--7--7--7--7--7--7--7----
E---------------0--0--0--0--0--0--0--------------0--0--0--0--0--0--0----
                                                                        

                      turn down volume knob                             
E-----------------------------------------------------------------------
B-----------------------------------------------------------------------
G---9--\--7--7--9--\----------------------------------------------------
D---7--\--5--7--9--\----------------------------------------------------
A------------5--7--\----------------------------------------------------
E-----------------------------------------------------------------------
                                                                        



  development and support by
dmitry ivanov