rock
 
|tablatures   |lyrics   |discussion forums   |more tabs @ XGuitar.com

Van_halen tabs

Poundcake bass tab

Main Line
G||--------| |----------------------------------|
D||--------| |----------------------------------|
A||--------| |----------------------------------|
E||--12\\---| |--0-0-0-0-0-0-0-0-0-0-0-0-0-0-0-0-|



----------------------------------|----------------------------------|
----------------------------------|----------------------------------|
----------------------------------|--4-4-4-4-4-4-4-4-4-4-4-4-4-4-4-4-|
--0-0-0-0-0-0-0-0-0-0-0-0-0-0-0-0-|----------------------------------|



----------------------------------| Michael Anthony has a bunch of different fills,
----------------------------------| you can play your own.
--4-4-4-4-4-4-4-4-4-4-5-5-7-7-7-7-|
----------------------------------|



          Verse Line 1                        Verse Line 2
|------------------------------------| |------------------------------------||
|*----------------------------------*| |*----------------------------------*||
|*----------------------------------*| |*----------------------------------*||
|---0-0-0-0-0-0-0-0-0-0-0-0-0-0-0-0--| |---5-5-5-5-5-5-5-5-5-5-5-5-5-5-5-5--||


 Pre-chorus line
-----------------------------------|--------------------------------||
*----------------------------------|-------------------------------*||
*--2-2-2-2-2-2-2-2-2-2-2-2-2-2-2-2-|--3-3-------5-5--0-0-0-0-0-0-0-*||
-----------------------------------|-------3-3----------------------||


     "Uh Huh, Uh Huh huh..."
|-----------------------------------|
|*----------------------------------|
|*----------------------------------|
|---0-0-0-0-0-0-0-0-0-0-0-0-0-0-0-0-|



----------------------------------|----------------------------------|
----------------------------------|----------------------------------|
----------------------------------|----------------------------------|
--0-0-0-0-0-0-0-0-0-0-0-0-0-0-0-3-|--5-5-5-5-5-5-5-5-5-5-5-5-5-5-5-5-|



-----------------------------------||------------------|
----------------------------------*||------------------|
----------------------------------*||------------------|
--5-5-5-5-5-5-5-5-5-5-5-5-5-5-5-3--||------------------|


      Line During Guitar Solo
--------------------------------|----------------------------|
--------------------------------|----------------------------|
--------------------------------|----------------------------|
--3-3--0-3-3--0-3-3-3-3-3-3-3-3-|--3-3--0-3-3--0-3-3-5--5----|



--------------------------------|----------------------------|
--------------------------------|----------------------------|
--------------------------------|--------------------2--2----|
--3-3--0-3-3--0-3-3-3-3-3-3-3-3-|--3-3--0-3-3--0-3-3---------|



----------------------------------|---------------------------------|
----------------------------------|---------------------------------|
----------------------------------|---------------------------------|
--3-3-3-0-3-3-3-0-3-3-3-3-3-3-3-3-|--3-3-3-0-3-3-3-0-3-3-5--5-5-5-5-|



----------------------------------|---------------------------------|
----------------------------------|---------------------------------|
----------------------------------|----------------------2--2-2-2-2-|
--3-3-3-0-3-3-3-0-3-3-3-3-3-3-3-3-|--3-3-3-0-3-3-3-0-3-3------------|


   Ending Line
|-----------------------------------|
|*----------------------------------|
|*--7-7-7-7-7-7-7-7-7-7-7-7-7-7-7-7-|
|-----------------------------------|



----------------------------------|----------------------------------|
----------------------------------|----------------------------------|
--7-7-7-7-7-7-7-7-7-7-7-7-7-7-7-7-|--4-4-4-4-4-4-4-4-4-4-4-4-4-4-4-4-|
----------------------------------|----------------------------------|



-----------------------------------||
----------------------------------*||
--4-4-4-4-4-4-4-4-4-4-5-5-7-7-7-7-*||
-----------------------------------||

----------------------------
\\ or /=Slide               |
h=Hammer on                |
p=pull off                 |
b=bend                     |
br=bend and release        |
----------------------------
  development and support by
dmitry ivanov