rock
 
|tablatures   |lyrics   |discussion forums   |more tabs @ XGuitar.com

Van_halen tabs

Outta Love Again guitar tab

                            Outta Love Again
                               Van Halen
                              Van Halen II
                        Transcribed by Jeff Glawe
                                                     Tune down 1/2 step
Notes in () not picked


                  hold bend and pick-------------------release          
E---19^--(22)-----22--22-----22--22-----22--22-----22--22--(19)^--------
B-----------------------------------------------------------------------
G-----------------------------------------------------------------------
D-----------------------------------------------------------------------
A-----------------------------------------------------------------------
E-----------------------------------------------------------------------
                                                                        

                 Prebend                                                
E---(22)--19-----------22^--(19)---------------------12-----------------
B---------------------------------17--20--17~~~\---5/----12--15^--------
G-----------------------------------------------------------------------
D-----------------------------------------------------------------------
A-----------------------------------------------------------------------
E-----------------------------------------------------------------------
                                                                        

                                                                        
E---------12-----------------------------------------------12-----------
B---(17)------12--15--12--12---------12--15^--(17)^--(15)------12-------
G-------------------------14^--(15)-------------------------------------
D-----------------------------------------------------------------------
A-----------------------------------------------------------------------
E-----------------------------------------------------------------------
                                                                        

                                                                        
E-----------------------------------------------------------------------
B---15--12------12----------15--12-------------12-----------------------
G-----------14------15--14----------14^--(15)------15--14--12^--(14)----
D-----------------------------------------------------------------------
A-----------------------------------------------------------------------
E-----------------------------------------------------------------------
                                                                        

                         M   M   M                                      
E-----------------------------------------------------------------------
B-----------------------------------------------------------------------
G---~~~--x--12h14p12\11--12------11--12h14p12--12--14p12--15--15--12----
D----------------------------14-----------------------------------------
A-----------------------------------------------------------------------
E-----------------------------------------------------------------------
                                                                        

                                                                        
E------------------12------14^--(15)--12------15^--(17)--12------15-----
B----------------------12-----------------12-----------------12---------
G---14--14^--(16)-------------------------------------------------------
D-----------------------------------------------------------------------
A-----------------------------------------------------------------------
E-----------------------------------------------------------------------
                                                                        

                                                                        
E---^--(17)^-----(15)^--(18)--15--17--12----------------12--------------
B-----------------------------------------15^--(17)~~~------12--15------
G-----------------------------------------------------------------------
D-----------------------------------------------------------------------
A-----------------------------------------------------------------------
E-----------------------------------------------------------------------
                                                                        

                                                                        
E-----------------------------------------------------------------------
B---p12-------------12--------------------------------------------------
G--------14^--(15)------15--14--12------14--12^--(14)~~~\---------------
D-----------------------------------14----------------------------------
A-----------------------------------------------------------------------
E-----------------------------------------------------------------------
                                                                        



  development and support by
dmitry ivanov