rock
 
|tablatures   |lyrics   |discussion forums   |more tabs @ XGuitar.com

Van_halen tabs

Love Walks In guitar tab

Love Walks In
By Van Halen
Off the Album 5150

Transcribed by Chad Koenig

h- hammer on
p- pull
s- slide
tr- trem bar drop
b- bend
r- release bend
ph- pick harmonic
== - hold bend

I transcribed the solos for the song

The first solo is right after the intro. Its not on the studio version but its on the album 
Live: Right Here Right Now.  They usually play this solo on live performances.


Intro Solo
                                                                                              ph
E:----------------------------------------------------------------------------------------------------------------------------
B:----------------------------------------------------------------------------------------------------------------------------
G:------------12-h-14--14----12-12-h-14-tr--15-14------12-12-h-14-10-10---------------------------------------
D:-------------------------------------------------------------------------------------------10p8-p7-h8-p7-5-----------
A:------------------------------------------------------------------------------------------------------------------------------
E:-----/S\----------------------------------------------------------------------------------------------------------------/S\--



                                                                                                                                       =======
----------------------------------------------------------------------------------------------------------20---------------------)
-------------------------------------------------10-13-10-13b-10h13p10------13-10-----20b-----20r-p-18-----20b-)
----------------------------------------------------------------------------------12-----------------------------------19-------)
---12-h-14--14---14b--12-12-h-14------------------------------------------------------------------------------------------)
------------------------------------------15-------------------------------------------------------------------------------------)
----------------------------------------------------------------------------------------------------------------------------------)


Main Solo (this solo is after the second chorus)
                                                                         ====
E------------15-------17-------------15--------15-------17h20p17-20b------------------------------------------------------
B----/s18-------18b----- 20-- /18------18b------18-------------------------18--20-20b-r-18-20b-r-18-22p18-/s-20-
G------------------------------------------------------------------------------------------------------------------------------------
D-----------------------------------------------------------------------------------------------------------------------------------
A-----------------------------------------------------------------------------------------------------------------------------------
E------------------------------------------------------------------------------------------------------------------------------------


--------------------15-------17---------------15------------------17-18-20p18h20p18p17---------------------------------------------
---20\s-----/s18------18b------20b--/s18------18b--20--18------------------------------------13b-13b-r-10-----10----------------
-------------------------------------------------------------------------------------------------------------------------12------12b-r-10----
----------------------------------------------------------------------------------------------------------------------------------------------12
--------------------------------------------------------------------------------------------------------------------------------------------------
--------------------------------------------------------------------------------------------------------------------------------------------------


-----------------------------------------------------------------------------------------------------------------------------------
--10-------------------------------------------------------------------------------8h10-6s8-12p8-10-12-13-12--13
------10-----------------------------------------------------------------7h9h10------------------------------------------------
-----------------------------------------------------7---------7h8h10-----------------------------------------------------------
-------------------------------7h8h10-7h8h10----8h10---------------------------------------------------------------------
-------------------------10-------------------------------------------------------------------------------------------------------



song switches to softer beat but still has a lead guitar                                                                                          ====
-------------------15b-r-15b-r-------20b----------------------------------------15/--20------------------------------------------
-----13b-------------------------------------------------------------------------------------------------20p18h20p18p17-------
-12--------------------------------------------19b-r---17------13--/s--17-------------------19b-r---------------------------17b
---------------------------------------------------------------------------------------------------------------------------------------
----------------------------------------------------------------------------------------------------------------------------------------
----------------------------------------------------------------------------------------------------------------------------------------


Theres the first and the last solo.  The reason I didnít put verse or chorus is because there is no guitar,  its just bass
And piano.  Enjoy learning the song ,  itís a great song and  Van Halen kicks ass.

Tell me what you think about my tab: Email me at      chadk_5150@hotmail.com
  development and support by
dmitry ivanov