rock
 
|tablatures   |lyrics   |discussion forums   |more tabs @ XGuitar.com

Van_halen tabs

Love Walks In bass tab

Van Halen: Love Walks In
Drop D tuning: D, A, D, G,
tabbed by: mmfan486


Intro

G:----------------|----------------|7-7-7-7-7-7-7-7-|--------5-5-5-5-|
D:----------------|7-7-7-7-7-7-7-7-|----------------|8-8-8-8---------|
A:8-8-8-8-8-8-8-8-|----------------|----------------|----------------|
D:----------------|----------------|----------------|----------------|

G:----------------|----------------|7-7-7-7-7-7-7-7-|----------------|
D:----------------|7-7-7-7-7-7-7-7-|----------------|7-7---5-5-------|
A:8-8-8-8-8-8-8-8-|----------------|----------------|----------------|
D:----------------|----------------|----------------|----------------|


Verse

G:----------------|----------------|----------------|----------------|
D:----------------|--------------3-|----------------|----------------|
A:--035-----035-3-|--035-----035---|--035-----035-3-|3--1--0---------|
D:0-------0-------|0-----0---------|0-------0-------|----------303-0-|

G:----------------|----------------|----------------|----------------|
D:----------------|--------------3-|----------------|----------------|
A:--035-----035-3-|--035-----035---|--035-----035-3-|3--1--0-------0-|
D:0-------0-------|0-----0---------|0-------0-------|----------------|


Bridge

G:----------------|----------------|----------------|----------------|
D:----------------|----------------|----------------|----------------|
A:--------0-----03|----------------|--------0-----03|----------------|
D:3--05--2--------|2--03-----525---|3--05--2--------|3-----3-05-05---|


1st Chorus

G:----------------|----------------|2---------------|----------------|
D:----------------|2---------------|----------------|3-------5-------|
A:3---------------|----------------|----------------|----------------|
D:----------------|----------------|----------------|----------------|

(play twice, but second time through make the final note very short.)


2nd Chorus

G:----------------|----------------|2---------------|----------------|
D:----------------|2---------------|----------------|3-------5-------|
A:3---------------|----------------|----------------|----------------|
D:----------------|----------------|----------------|----------------|

G:----------------|----------------|2---2---2---2---|----------------|
D:----------------|2---------------|----------------|3---3-3-5-5-5-5-|
A:3---------------|----------------|----------------|----------------|
D:----------------|----------------|----------------|----------------|


Guitar solo

OK, as far as the bass is concerned, this is made up of the intro and
the first chorus. 1 difference though; the last bar of the intro goes:

G:----------------|
D:8-------5-------|
A:----------------|
D:----------------|


Verse 3

G:----------------|----------------|----------------|----------------|
D:----------------|--------------3-|----------------|----------------|
A:--035-----035-3-|--035-----035---|--035-----035-3-|3--1--0---------|
D:0-------0-------|0-----0---------|0-------0-------|----------573-0-|

G:----------------|----------------|----------------|----------------|
D:----------------|--------------3-|----------------|----------------|
A:--035-----035-3-|--035-----035---|--035-----035-3-|3--1--0-------0-|
D:0-------0-------|0-----0---------|0-------0-------|----------------|


3rd Chorus

G:----------------|----------------|2---------------|----------------|
D:----------------|2---------------|----------------|3-------5-------|
A:3---------------|----------------|----------------|----------------|
D:----------------|----------------|----------------|----------------|

G:----------------|----------------|2---------------|----------------|
D:----------------|2---------------|---------------3|--3--3--5--5--5-|
A:3---------------|----------------|----------------|----------------|
D:----------------|----------------|----------------|----------------|

Outro

Repeat the first 4 measures of the intro 3 times, then:

G:----------------|----------------|7-7-------------|--------5-------|
D:----------------|7-7-------------|----------------|7---------------|
A:8-8-------------|----------------|----------------|----------------|
D:----------------|----------------|----------------|----------------|

G:----------------|
D:----------------|
A:8---------------|
D:----------------|


Song Order:

Synth Intro: As chorus 1 but leave out the 5 altogether second time.
Intro
Verse 1
Bridge
Chorus 1
Verse 2: As verse 1
Bridge
Chorus 2
Guitar solo (see notes)
Verse 3
Bridge
Chorus
Outro.
  development and support by
dmitry ivanov