rock
 
|tablatures   |lyrics   |discussion forums   |more tabs @ XGuitar.com

Van_halen tabs

Light Up The Sky bass tab

Im pretty *** sure that this is dead on
Standard tuning

Intro (0:00)
G-----16----15----14---13-----12---11----10----9----8----7----6----5---4-----------
D-14----13----12----11----10-----9----8------7----6----5----4----3------2-----------
A-----------------------------------------------------------------------------7/----
E--------------------------------------------------------------------------------3--

--------------------------------------------------------------------------------------------
-------------------------------------------------------------------5-3----------------------
-----------------------------------------------------------------------3---------------------
-(3)-3-3-3-3-0-1-2---3-3-3-3-3-0-1-3---3-3-3-----3-0-1-3---3-x-3---------3-(3)-3-3-3-0-1-2

--------------------------------------------------------------------------------------------------
--------------------------------------------------------------------------------------------------
-------------------------------------------------3-2-0--------------------------------------------
--3-3-3--------0-1-2-3-3-3----3-0-1-3---3-3-3-----------3-5-(5)-5-------5-0-3-4--5-5-5--5-0-3-5

1st & 2nd Verses (0:21-1:03)
--------------------------------------------------------------------------------------------------------
------------/7-5-7--------------------------------------------------------------------------------------
--------------------------------------------------5-(5)------------5/-----------------------------------
--(5)-5-5-----------5-(5)----5-----5-0-3-5--1------------1----1------------0-----3---3-3-3---3-0-1-0----

-----------------------------------------------------------------------------------------------------
------------------------------------------------5-3-5------------------------------------------------
-----------------------------------------------------------------------------------------------------
---3-3-3-3-3-0-1-3---3-3-3----3-0-1-3--3-3-3------------3--3---3-3-(3)-0-1-3--3-3-3---3-0-1--3-------

Pre-Chorus(both on them) (0:31-1:11)
-----------------------------------------------------------------------------------------------------
----------5-3------------------5-3---------------------------------5-2-------------------------------
---------------5--------------------5-2---2---2---2-0-1-2---2-2-2-------5--------------7-5-6-7-------
--3-3-3-----------3--3----3---------------------------------------------------0---0------------------

---------------------------------------------------------------------------------------------------------
--------------------------------------------------------------------------------0-3-2--------------------
----------------------0-3-2-3-3------------3--------------3-----------3-0-2-3-------------------------------
------------0-2-3-----------------------------------------------------------------------1-1-----1---1/13--13\

Chorus(0:43-1:23)
---------------------------------------------------------------------------------------------7--7-9----
---------------------------------------------------------------------------------------7-9-------------
----------5-(5)--------------5------5-5------------------7-7-7-7-7-5--------------------------------
--1/--------------1------1---------------------0----0-0-----------------7-0--0-----------------------

--9-------5------7--5--------------------7-------------------------------------------------------
-------------9---------9----9----9----7-----7----------------------------------------------------
------------------------------------5----------5\3---------------------------1---2---3-3-3-3-3---
------------------------------------------------------0-------0----0---1--3----------------------

----------------------------------------------------------------------------------------------------
-----------------------------------------------7--7-9---9---7---------7---9-------------------------
-----------------7--7--7--9--7--3--3--3--7/9---------------------9-------------0--------------------
-----0----0--0------------------------------------------------------------------------1--1---0------

Bridge (1:42)
----------------------------------------------------------------------------------------------------------------
----------------------------------------------------------------------------------------------------------------
----------------------------------------------------------------------------------------------------------------
----0-----------------------0--------------------------0---------0-0---3----0----------------5---------------

----------------------------------------------------------------------------------------------------------------
-----------------------------------------------------------------------------------------7------------------9--
----5----------------------------------------------------------------------------------------5----------5------
----------------------------0--------------------------0--------5/6---3--5---------5--------------------------

(then go back to verses)

Guitar Solo (2:01) x3
---------------------------------------------------------------------------------------------------
---------------------------------------------------------------------------------------------------
--3-3-3-3-3-3-3-3-3-3-3-3-3-3-5----------------7----7----7-7-7-7-7-7-7-7-7-7-7-6-5-3---3-3-3-3-3-3-
----------------------------------------------------------0----------------------------------------

Drum Solo(2:21) x8? i think?
-----------------------------------------------------------------------------------------------------------
-----------------------------------------------------------------------------------------------------------
--3-3-3-3-3-3-3-3-3-3-3-3----------------------------------------------------------------------------------
-------------------------------/-3------------0---0-----3------5------5----5/12\----------0-0-0-0-0-0-0----

And I cant figure out the outro yet
this is a very kick ass song im shocked no one already didnt tab it yet
Tabbed by: SaV
  development and support by
dmitry ivanov