rock
 
|tablatures   |lyrics   |discussion forums   |more tabs @ XGuitar.com

Van_halen tabs

Jump -solo guitar tab

"Jump" - Solo
By Van Halen

Legend:

%3  -  repeat 3 times
h  -  hammer
p  -  pull-off
^  -  bend
h t  -  tapping
A.H. -  artificial harmonic
P.M. -  palm mutting


e|--19/7--7-----------------------------------|-----------------|
B|-----------10^--7h10p7 %3-------------------|---------6-6^----|
G|--------------------------7h9p7 %3----------|------4----------|
D|-----------------------------------7h9p7 %3-|-----------------|
A|--------------------------------------------|-----------------|
E|--------------------------------------------|-----------------|



e|------------------------------|---7-10-14 %3-----------------------------|
B|------------------------------|-------------7-10-14 %3-------------------|
G|--4h7p4 %3--------------------|-----------------------7-9-11 %3----------|
D|-----------4h7p4 %3-----------|--------------------------------7-9-11 %3-|
A|---------------------4h7p4 %3-|------------------------------------------|
E|------------------------------|------------------------------------------|

|-P.M.-|

e|------------------------7---9-10-12^/10/12---|
B|----------------------7----------------------|
G|-----------9^/7/9---7------------------------|
D|---------------------------------------------|
A|--7^/5/7-------------------------------------|
E|---------------------------------------------|


e|----------------------------------------------------13h15h16-15-------|
B|--------------------------------------------13h15h16------------------|
G|----------10h12h13------------------10h12h13--------------------------|
D|--10h12h13------------------10h12h13----------------------------------|
A|----------------------------------------------------------------------|
E|----------------------------------------------------------------------|
  development and support by
dmitry ivanov