rock
 
|tablatures   |lyrics   |discussion forums   |more tabs @ XGuitar.com

Van_halen tabs

Jump guitar tab

Author/Artist: Van Halen

Title: Jump

Transcribed by: Doug Swenson

Email: metfan@gte.net



--------------|----------------------------|----------------------------------

-15-----17----|--13-------13-----15----15--|--17-------13--------10-----------

-16-----17----|--14-------14-----16----16--|--17-------14--------10-----------

-17-----17----|--15-------15-----17----17--|--17-------15--------10-----------

--------------|----------------------------|----------------------------------

--------------|----------------------------|----------------------------------

  *Synth. arr for guitar.                                                     



---------------|-|--20------20-----|---20-------20------15--|-----------------

--8-----8------|-|--22------22-----|---22-------22------17--|--13-----10------

--9-----7-----*|-|--22------22-----|---22-------22------17--|--14-----10------

-10----10-----*|-|-----------------|------------------------|--15-----10------

---------------|-|-----------------|------------------------|-----------------

---------------|-|-----------------|------------------------|-----------------

                                                                              



--------|-----------|-|----------------------|--------------------------------

-10-----|--8-----8--|-|----------------------|--------------------------------

-10-----|--9-----7--|-|------9vvvvvv---------|-------5---------5---7/9--------

-10-----|-10----10--|-|----------------------|----7---------5-----------------

--------|-----------|-|----------------------|-8---------7--------------------

--------|-----------|-|----------------------|--------------------------------

                                                                              



-------------------|--------------------------|---------------|---------------

-------------------|--------------------8/10--|--8vvvvvv------|---------------

-7-----------------|-------5---------5--------|---------------|---------------

-------------------|----7---------7-----------|---------------|---------------

-------------5--7--|-8---------7--------------|---------------|---------------

-------------------|--------------------------|---------------|---------------

 (Guitar Solo)                                                                



------19v--\----7-------|--7------p-------7--------------------|--------------

----x---------x----10b--|----7--10-7-----------p-p------7------|-7b--7--7b----

--x---------------------|-------------10-----10-9-7--9-----7---|--------------

------------------------|--------------------------------------|--------------

------------------------|--------------------------------------|--------------

------------------------|--------------------------------------|--------------

                                                                              

                                              H H   T     P P P H   T  P  P P  

----------|-----------------------------------7-10--14---10-9-7-10--14-10-9-7-

-7b-------|-------------------------------------------------------------------

----------|--9b---p-----------------------------------------------------------

------9---|------9-7-----7---p-p----------------------------------------------

--------9-|-----------9-----9-8-7\5---7--5------------------------------------

----------|-------------------------------------------------------------------

                                                                              

  H   T  P P P   H T P   H  T  P  H   

-10--14-10-9-7------------------------------------------|---------------------

----------------10-14-7---------------------------------|---------------------

-------------------------10-14-7--11--------------------|-----------9b--7-9---

--------------------------------------14-7-11-----------|---------------------

-----------------------------------------------14-7-11--|--7b---/9------------

--------------------------------------------------------|---------------------

                                                                              



-------7--9--12-12/14--10--12v---/|-------------------------------------------

-----7----------------------------|-------------------------------------------

---7------------------------------|------------H--H--------------H--H---------

-9--------------------------------|---H--H---16-17-19---H--H---16-17-19-------

----------------------------------|-16-17-19----------16-17-19----------------

----------------------------------|-------------------------------------------

                                                                   

                            H  P            P       P       P       P

-------------H--H----|-|--16-17-16--|-----10-7----10-7----12-8----12-8--------

----H--H---16-17-19--|-|------------|----------8-------8-------8-------8------

--16-17-19-----------|-|------------|-----------------------------------------

---------------------|-|------------|-----------------------------------------

---------------------|-|------------|-----------------------------------------

---------------------|-|------------|-----------------------------------------

                                                                              

   P       P       P      P        P      P      P      P      P       P

-10-7---|10-7----10-7----8-5-----8--5----8-5---|7-3----7-3----8-5----10-7-----

------8-|-----8-------8-------6-------6------6-|----3------3------6-------8---

--------|-------------------------------------*|------------------------------

--------|-------------------------------------*|------------------------------

--------|--------------------------------------|------------------------------

--------|--------------------------------------|------------------------------

                                                                              

  P                             P      P      P      P      P      P

-8-5--|-----------------------10-7----8-5----8-5----7-3----7-3----5-1---------

-----6|----------------------------8------6------6------3------3------1-------

------|-----------------------------------------------------------------------

------|-----------------------------------------------------------------------

------|-----------------------------------------------------------------------

------|-----------------------------------------------------------------------

                                                                              

  P      P      P      P      P       P      P       P      P             

-5-1----7-3----5-1----7-3--|-8-5----10-7----8-5----10-7----8-5----|-----------

-----1------3------1------3|-----6-------8------6-------8------6--|-----------

---------------------------|--------------------------------------|-----------

---------------------------|--------------------------------------|-----------

---------------------------|--------------------------------------|-----------

---------------------------|--------------------------------------|-----------

                                                                              

 H H  T    T    H  H  T  T  P   P H  H T   T  P  P H   T    T  P  P  P H 

----------------------------------------------------------|-------------------

-8-13-15--20----8-13-15--20-15-13-8-13-15--20-15-8-13--15-|-20-15-13-8-13-----

----------------------------------------------------------|-------------------

----------------------------------------------------------|-------------------

----------------------------------------------------------|-------------------

----------------------------------------------------------|-------------------

                                                                              

  T   T  P P  H T   T  P  P H  T   T  P  P  H    H H  T   T  P  P H  T   T

----------------------------------------------|-------------------------------

-15--20-15-8-13-15--20-15-8-13-15--20-15-13-8-|--8-13-15--20-15-8-13-15--20---

----------------------------------------------|-------------------------------

----------------------------------------------|-------------------------------

----------------------------------------------|-------------------------------

----------------------------------------------|-------------------------------

                                                                              

  P P  H  T  T  P  P H  T   T  P  P H  T   T  P  P H  T   T  P  P H  T   T    

-----------|-----------------------------------------------------------|------

-15-8-13-15|-20-15-8-13-15--20-15-8-13-15--20-15-8-13-15--20-15-8-13-15|-20---

-----------|-----------------------------------------------------------|------

-----------|-----------------------------------------------------------|------

-----------|-----------------------------------------------------------|------

-----------|-----------------------------------------------------------|------

                                                                              

 P  P  H T   P H  T   T   P H  T    T  P P H  T   T  P  H    T     T  P  H  

----------------------------------------------------------------|-------------

-15-8-13-15--8-13-15--20-15-13-15--20-15-8-13-15--20-15-13---15-|--20-15-13---

----------------------------------------------------------------|-------------

----------------------------------------------------------------|-------------

----------------------------------------------------------------|-------------

----------------------------------------------------------------|-------------

                                                                              

 P  H  T   T  P  P H  T   T    T   P P

----------------------------------------|-----------------------|-------------

-8-13-15--20-15-13-8-13---15---20-15-13-|-----------------------|----8--------

----------------------------------------|----5---7---9---5---7--|-9------5----

----------------------------------------|-----------------------|-------------

----------------------------------------|-----------------------|-------------

----------------------------------------|-----------------------|-------------

                                                                              



------------|-----------------|-----------------------------------------------

------------|-----------------|-----------------------------------------------

-9---5---7--|-7-------9---5---|-----------------------------------------------

------------|-----------------|-----------------------------------------------

------------|-----------------|-----------------------------------------------

------------|-----------------|-----------------------------------------------

                                                                              



------------------|--------------------------|---------------------------|----

------------------|--------------------------|---------------------------|----

------------------|--------------------------|---------------------------|----

------------------|--------------------------|---------------------------|----

-3--3--3--3--3--3-|-3--3----3--3----3--3--3--|---3--3--3--3---3--3--3--3-|-3--

------------------|--------------------------|---------------------------|----

                                                                              



----------------------|------------------------|-------------------------|----

----------------------|------------------------|-------------------------|----

----------------------|-5--5--5--5--5--5--5--5-|--5--5--5--5--5--5--5--5-|----

----------------------|------------------------|-------------------------|----

----------------------|------------------------|-------------------------|----

-1--1--3--3--3--3--3--|------------------------|-------------------------|----

                                                                              



------------------------|------3---3------------|-------------------------|---

------------------------|------5---3------------|-------------------------|---

-5--5--5--5--5--5--5--5-|--5---5---5------------|------5--5--5--4--4--5-2-|---

------------------------|---------------5--5--5-|-------------------------|---

------------------------|-----------------------|---3---------------------|---

------------------------|-----------------------|-------------------------|---

                                                                              



-------------------------|-------------------------|-----3---3------3--3--3---

-------------------------|-------------------------|-----5---3------3--3--3---

--2--2--5--5--4--4--5----|--------5-5--5-5--5--5--5|--5--5---5------5--5--5---

-----------------------5-|--5--5-------------------|--------------------------

-------------------------|-------------------------|--------------------------

-------------------------|-------------------------|--------------------------

                                                                              



---------------------|------------------------|-----------------------|-------

---------------------|------------------------|-----------------------|-------

--5--5--5---5-5--5--5|--5--5--5--5--5--5--5--5|--5--5--5--5--5-5--5--5|--5----

---------------------|------------------------|-----------------------|-------

---------------------|------------------------|-----------------------|-------

---------------------|------------------------|-----------------------|-------

                                                                              



-3--3---|----------------------------------------------|----------------------

-5--3---|----------------------------------------------|----------------------

-5--5---|--5--5--5--4--4--5--2--2--2--5--5--4--4--5----|--------5--5--5--5----

--------|--------------------------------------------5-|--5--5----------------

--------|----------------------------------------------|----------------------

--------|----------------------------------------------|----------------------

                                                                              



-----|-----3--3----3--3--3--|----------------------|--------------------------

-----|-----5--3----3--3--3--|----------------------|--------------------------

-5--5|--5--5--5----5--5--5--|-5--5--5---5--5--5--5-|--5--5--5--5--5--5--5-----

-----|----------------------|----------------------|--------------------------

-----|----------------------|----------------------|--------------------------

-----|----------------------|----------------------|--------------------------

                                                                              

  development and support by
dmitry ivanov