rock
 
|tablatures   |lyrics   |discussion forums   |more tabs @ XGuitar.com

Van_halen tabs

Jump bass tab

Van Halen
Jump

Transcribed By: Ryan Huntsman  (IbanezBassMX)
Email: Ryan82184@aol.com

Intro  (0:00)
G---------------------
D------------------5--
A-3~~~~~~-------------
E----------1--3~------

G-5------------------------------------
D---5-------------------------------5--
A-----3~~~~-----------------------7----
E------------------------1---3~-3------

G------------------------------------------------------------------
D------------------------------------------------------------------  X2
A-3-3-3-3-3-3-3-3-3-3-3-3-3-3-3-3-3-3-3-3-3-3-3-3-3----------------
E---------------------------------------------------1-1-3-3-3-3-3--

1st Verse  (0:29)
G------------------------------------------------------------------
D------------------------------------------------------------------  X2
A-3-3-3-3-3-3-3-3-3-3-3-3-3-3-3-3-3-3-3-3-3-3-3-3-3----------------
E---------------------------------------------------1-1-3-3-3-3-3--

1st Verse (cont..) (0:44) / 2nd Verse  (1:30)
G------------------------------------------------------------------
D------------------------------------------------------------------  X2
A-3-3-3-3-3-3-3-3-3-3-3-3-3-3-3-3-3-3-3-3-3-3-3-3-3----------------
E---------------------------------------------------1-1-3-3-3-3-3--

Pre-Chorus  (0:59, 1:45)
G---------------------------------------------------------
D---------------------------------------------------------
A---------------------------------------5~--5----5--------
E-5----3----5----3---3~-3----1--1-1-0---------5----0-5-3--

G-----------------------------------------------------------------------------
D-------------------------------------------------------------------5~--------
A-------------5~--5---5~-------------------------------7-5--------7----7-5----
E-1--1-1-0----------5----0-5-3----1--1--0-0-1-3~-3-3-3-----7-3~-3----------7--

Chorus  (1:15, 2:02)
G------------------------------------------------------------------
D------------------------------------------------------------------  X2
A-3-3-3-3-3-3-3-3-3-3-3-3-3-3-3-3-3-3-3-3-3-3-3-3-3----------------
E---------------------------------------------------1-1-3-3-3-3-3--

Guitar Solo  (2:17)
G----3--------------------------
D----------4-------------6~-----  X4
A-1----1-----------------4~-----
E--------2---2---4~-------------

G----3----------------
D-----------4---------
A-1----1--------------
E--------2----2---4~--

Synth Solo  (2:32)
G------------------5-5-------------
D----------------------------------
A-3~~~------------------3~~--------
E-----------------------------3-1--

G------------------------------------------------------------
D---------3~--------------5------5~--------------------------
A----------------------------------------1~~~~~---1-3-----1--
E-1~--------------3~----------3~----3------------------------

G--------------------------------------------------------------------------5~~----
D-------------------------------------------------7--5--7--5------------5------5--
A-0~~~~~~-----------------------------------------------------7\\3~----------------
E----------1-----0----4~~~~~~----------0----3~~~----------------------------------

(3:05)
G-------------------------------5----------------------------------
D--------------------------5------5--------------------------------
A-3~~~~~~---------------------------3~~~~~-------------------------
E------------------1--3~----------------------------1-1-3-3-1-3\\5--

Outro Chorus  (3:20)
G------------------------------------------------------------------
D------------------------------------------------------------------
A-3-3-3-3-3-3-3-3-3-3-3-3-3-3-3-3-3-3-3-3-3-3-3-3-3----------------
E---------------------------------------------------1-1-3-3-0-1\\3--

Play Outro Chorus until you fade out.

Thats all of it, this song is very easy to play because their is not much to it, Have Fun. GW
Please rate this tab, Thanks.
  development and support by
dmitry ivanov