rock
 
|tablatures   |lyrics   |discussion forums   |more tabs @ XGuitar.com

Van_halen tabs

Jamie's Cryin' guitar tab


                             Jamie's Crying
                               Van Halen
                        Transcribed By Jeff Glawe

                                                    Tune down 1/2 step



                                                                        
E-----------------------------------------------------------------------
B-----------------------------------------------------------------------
G-----------------------------------------------------------------------
D-----------------------------------------------------------------------
A---2-----2--2--------2--2-----2-----1--0-----2--------2--2--------2----
E---0-----0--0--------0--0-----------------3--0--------0--0--------0----
                                                                        

                                                                        
E---------------------------------7-------------------------------------
B---------------------------------7-----------5-------------------------
G---------------------------------------------5-------------------------
D---------------------------------------------0-------------------------
A---2--------2-----1--0-----2--------------------------2-----1--0-------
E---0--------------------3--0--------0--0--------------------------3----
                                                                        

                                                                        
E---------7--------------------------------------7----------------------
B---------7-----------5--------------------------7--x--x--x--7-----x----
G---------------------5-----------------------------x--x--x--7----------
D---------------------0-------------------------------------------------
A---2-----------------------2-----1--0-----2----------------------------
E---0--------0--0-----------------------3--0----------------------------
                                                                        

                                                                        
E---------------------------7-------------------------------------------
B------5--5--5--5-----------7--x--x--x----------------------------------
G---x--7--7--7--7--------------x--x--x--7-------------------------------
D---------------------------------------7-------------------------------
A-----------------------------------------------------------------------
E------------------0----------------------------------------------------
                                                                        


  development and support by
dmitry ivanov