rock
 
|tablatures   |lyrics   |discussion forums   |more tabs @ XGuitar.com

Van_halen tabs

Jamie's Cryin' bass tab

Artist: Van Halen
Song: Jamies Cryin

intro (0:00)

G||---------------------------|----------------------------|------------------------
D||---------------------------|----------------------------|------------------------
A||---------------------------|----------------------------|------------------------
E||-0--------0---0--------0---|-0--------7-------6--5--3---|-0------0----7--6--5--3-


--|---------------------------|----------------------|
--|---------------------------|----------------------|
--|---------------------------|----------------------|
--|-0--------0---0--------0---|-0------0-7--6--5--3--|

1st Verse (0:16)

|---------------------------|---------------7----------|--------------------------|
|---------------------------|--------------------------|--------------------------|
|---------------------------|------------5-------------|--------------------------|
|-0--------0---0--------0---|-0-------0----------5--3--|-0--------0---0-------0---|


------------------------|-------------4----------|----------------------|
------------------------|------------------------|----------------------|
------------------------|----------2-----2--0----|----------0--0--0--2--|
-0-------0--7--6--5--3--|--2----2----------------|----------------------|

1st&2nd Choruses             2nd Verse (0:51)
 (0:35, 1:21)  (last time)
                to Coda 1
|---------------------------|-------------------------|----------------------------|
|---------------------------|-------------------------|----------------------------|
|---------------------------|-------------------------|----------------------------|
|--0--------0---0-------0---|-0-------0--7--6--5--3---|--0--------0---0--------0---|


|-----------------7----------|----------------------------|-------------------------
|----------------------------|----------------------------|-------------------------
|--------------5-------------|----------------------------|-------------------------
|-0--------0----------5--3---|--0--------0---0--------0---|-0--------0--7--6--5---3-

  Pre-chorus (1:06, 2:06)

--|--------------------------------------------------|------------------------------
--|--------------------------------------------------|------------------------------
--|--------------------------------------------------|------------------------------
--|------------5------------5----5----5----5----5----|-5----5--------5----5------5--


-------|-----------------------------------------|----------------------------------
-------|-----------------------------------------|------4---------5---------6-------
-------|-----------------------------------------|----------------------------------
--0----|-5----5----5----5----5----5----5----5----|-2---------3---------4---------5--

       (2nd time) To Coda 2

-------|------------------------------|-----------------------------------|---------
--7----|------------------------------|----------------------4------------|---------
-------|------------------------------|-------------------------------7---|---------
-------|----------5---5---5---5---5---|-5---5---5---5---5---------5-------|-5---5---


------------------------|--------------------------------|
------------------------|-------------4-------5-------7--|
------------------------|--------------------------------|
5---5---5---5---5---5---|-5---2---2-------3-------5------|

Coda 1 (1:36) Bridge

|---------------------------------|--7----------9------------11----|
|----------------6------4---6-----|---------0------------0---------|
|--------4------------------------|--------------------------------|
|---------------------------------|--------------------------------|


|--------6--------------|------------------------|---------6--------4---6------|
|-----------------------|--------4---------------|-----------------------------|
|-4---------------------|----------------2---3---|-4---------------------------|
|-----------------0-----|-2----------------------|-----------------------------|


|---------11-----9---------7-----|--------------------------|--------/-9---9--9--9--
|--------------------------------|--------------------------|-----------------------
|--------------------------------|--------------------------|-----------------------
|--------------------------------|-0--------0---0-------0---|-0---------------------

(1:51)
                                                   (play 4 times)
-9----|--------------------------|------------------------------|
------|--------------------------|------------------------------|
------|--------------------------|------------------------------|
------|-0--------0---0-------0---|-0--------0---7---6---5---3---|

Coda 2 (2:21) 3rd Chorus

|--------------------------|-----------------------------|------------4--------|
|--------------------------|-----------------------------|----4----------------|
|--------------------------|-----------------------------|---------2-----2-0---|
|-0--------0---0-------0---|-0-------0---7---6---5---3---|-2-----2-------------|

                                                 Out-chorus (2:33) (play 15 times)
|---------------------|--------------------------|-----------------------------||
|---------------------|--------------------------|-----------------------------||
|---------0--0--0--2--|--------------------------|-----------------------------||
|---------------------|-0--------0---0-------0---|-0-------0---7---6---5---3---||

PLEASE RATE. Listen for timing
  development and support by
dmitry ivanov