rock
 
|tablatures   |lyrics   |discussion forums   |more tabs @ XGuitar.com

Van_halen tabs

In'N'Out guitar tab

In'N'Out

    B~~~~~~~~~~~~                           ~~~~~~~~  H quickdive      P
|--15--------------------------------------12----------------------------------17-------
|-------------------13------------------10----------10-13------10----13-10--------17----
|----------------14----14--------(14)\----------------------------11--------------------
|---------------------------------------------------------------------------------------
|---------------------------------------------------------------------------------------
|---------------------------------------------------------------------------------------

   B~~~~~~~~~~~~~~~ P  H  P      B                   B P             B   B   B  B   B
--20------------(20)-17-20-17--------17-----------------------------22--22--22--22--22--20-
---------------------------------20-----17-20----17-----------17---------------------------
----------------------------------------------19----19--17-19----17------------------------
-------------------------------------------------------------------------------------------
-------------------------------------------------------------------------------------------
-------------------------------------------------------------------------------------------

      ~~~~~~~~~~~~       B   B       P [tapped harm.................]    T P H  T P  P
--22-20-----------------------------------------------------------------------------------
-------------------------------------------------------------------------10-5-8-10-8---5--
---------------------5-7-7-7-5----(5)--7(12)-7(14)-7(12)-7(14)-7(12)----------------------
-------------------7----------------------------------------------------------------------
------------------------------------------------------------------------------------------
------------------------------------------------------------------------------------------

  B  T  P P H          B B               H  P  ~~~~~~~~ harm w/slow dive
--------------------------------------------------------------------------------|
----------------5------7--------------------------------------------------------|
--7--12-7--5-7----5----7-5------------------------------5-----------------------|
--------------------7--------------7---5--7--5----------------------------------|
-------------------------------------7---------5--------------------------------|
--------------------------------------------------------------------------------|

            B~~~~~~~~         ~~     P   ~~     P                   
|--------------------------------------------------------5----8----12---------------------
|-----------7--------------------------------------------6----8----13---------------------
|-----------7---------------------------------------2----5--------------------------------
|--2------------------2----------2----------2-------0----------------------2-------2------
|--0------------------0----------0--3-0-----0--3-0-------------------------0-------0------
|-----------------------------3----------3--------------------------------------3-----3---

       P               P                      P      
--------------------------------------------------------------------------------|
----------8-------8---------7-----------13------------12------------------------|
----------7-----9-----9-7---7--------14-----14-12-----12----7-7--8-8--3-3--5-5--|
--2-------6--7------------7------12---------------12--------7-7--8-8--3-3--5-5--|
--0-------7-------------------------------------------------7-7--8-8--1-1--3-3--|
-----3-0------------------------------------------------------------------------|


Tab by: Mike V. (|5150|)






  development and support by
dmitry ivanov