rock
 
|tablatures   |lyrics   |discussion forums   |more tabs @ XGuitar.com

Van_halen tabs

Ill Wait guitar tab

I'll Wait
by Van Halen
from the album 1984


\/ - whammy bar dive
b - bend
r - release
solo
                                                                                                         
            \/ \/            \/ \/            \/ \/
[-harm---------------------------------------------------]      [--P.M.-------]
---------------------------------------------------------------------------------
---------------------------------------------------------------------------------
----7-----7------------7-----7--------7-----7------------------------5-------5---
-------------------------------------------------------------------------7-------
------------------------------------------------------7--------------------------
---------------------------------------------------------------------------------


-------------------------------------------------------------------17br--------------
------------------6----8-------------------------------------------------15--18--17b-
--7---5b-----7--------------7b-----------------------------/16-14--------------------
--------------------------------5b----3-------------/14-12---------------------------
---------------------------------------------/12-10----------------------------------
-------------------------------------------------------------------------------------


------------------------12--------------------12---10---13---13---12----13p12h13p12p10--
--15--17------15-------------13p10------------------------------------------------------
----------14------------------------10--------------------------------------------------
----------------------------------------------------------------------------------------
----------------------------------------------------------------------------------------
----------------------------------------------------------------------------------------


----10----------------------------------------20--------------------20-----------
-13----13brp10------13b------------20brb----------20b-----20brb------------18b---
----------------12---------------------------------------------------------------
---------------------------------------------------------------------------------
---------------------------------------------------------------------------------
---------------------------------------------------------------------------------


----------------------------------------------10h13----------------------------------
------------------------------------10h12h13-----------------------------------------
--------------------------10h12h13---------------------3p0--3p0---3p0--3b---3---0----
-------------10----10-12-------------------------------------------------------------
-/8---12p10-----12-------------------------------------------------------------------
-------------------------------------------------------------------------------------

                                                   \/ realese & vib.
---12-----10--------------8h10---(10)p8-----------------------------------10-----
---------------10------------------------8---------------------------------------
-----------------------------------------------(7)--(7)------------12b-----------
---------------------------------------------------------------------------------
---------------------------------------------------------------------------------
---------------------------------------------------------------------------------

[--\/ vib.----------]
--(10)-------(10)/17-------
---------------------------
---------------------------
---------------------------
---------------------------
---------------------------

Van Halen Guitar Tablature Archive
  development and support by
dmitry ivanov